PrimaNota.ru - самый крупный в мире бесплатный архив песенных текстов, аккордов, табулатур и нот


Hawthorne Heights - New Winter - таба, видео

Регистрация Запомнить меня
Войти через:  Facebook Google Twitter Vk Yandex Mail.ru

Hawthorne Heights - New Winter - таба, видео

Печатать
Просмотров: 59
Standard Tuning

Verse
Rhythm
e------------------------------------------------------------------------------------------|
b------------------------------------------------------------------------------------------|
g-------66666--66666--44444--44444--66666--66666--44444--44444--22222--22222--66666--66666-|
d-------66666--66666--44444--44444--66666--66666--44444--44444--22222--22222--66666--66666-|
a-------44444--44444--22222--22222--44444--44444--22222--22222--00000--00000--44444--44444-|
e-12///------------------------------------------------------------------------------------|

Lead (Bottom notes are optional)
e-------------------------------------------------4444----------------------------|
b--555555---4444---5555---4444---55555555---4444-(5555)-444444444444444455554444--|
g-(666666)-(4444)-(6666)-(4444)-(66666666)-(4444)------(444444444444444444444444)-|  2x
d---------------------------------------------------------------------------------|
a---------------------------------------------------------------------------------|
e---------------------------------------------------------------------------------|

e------------44444444------------44444444---999999999999~----999999999999~---|
b--55555555-(55555555)-55555555-(55555555)-(999999999999~-)-(999999999999~-)-|
g-(66666666)----------(66666666)---------------------------------------------|
d----------------------------------------------------------------------------|
a----------------------------------------------------------------------------|
e----------------------------------------------------------------------------|

Pre-Chorus
Rhythm
e-------------------------------------------------------------------------|
b-------------------------------------------------------------------------|
g----------99999999---------------------------99999999--------------------|
d-99999999-99999999-9999999999999999-77777777-99999999-999999999999-99-99-|
a-99999999-77777777-9999999999999999-77777777-77777777-999999999999-99-99-|
e-77777777----------7777777777777777-55555555----------777777777777-77-77-|

Lead
e-------------------------------------------|
b-------------------------------------------|
g-------------------------------------------|
d------------6-----------------------6------|
a-6--------6---9p6~-----6--------6h9---9~---|
e---9-7~--------------9---9-7~--------------|

Chorus
Rhythm
e--------------------------------------------------|
b--------------------------------------------------|
g-----------------------9-9------------------------|
d-11--11-11--11-11--9-9-9-9-7--7-7--7-7--11-11-9-9-|
a-11--11-11--11-11--9-9-7-7-7--7-7--7-7--11-11-9-9-|
e--9---9--9---9--9--7-7-----5--5-5--5-5---9--9-7-7-|

e------------------------------------------------|
b------------------------------------------------|
g-----------------------9-9----------------------|
d-11--11-11--11-11--9-9-9-9-7--7-7-7-7-7-7-7-7-7-|
a-11--11-11--11-11--9-9-7-7-7--7-7-7-7-7-7-7-7-7-|
e--9---9--9---9--9--7-7-----5--5-5-5-5-5-5-5-5-5-|

Lead
e-------------------------------------------------------44444444-|
b-4h55555-444-555-4h55555-444-----4h55555-444-555-77777----------|
g-----------------------------666--------------------------------|
d----------------------------------------------------------------|
a----------------------------------------------------------------|
e----------------------------------------------------------------|

Verse
Pre-Chorus
Chorus

Bridge
e---------------|
b---------------|
g---------------|
d-7-7-7-7-7-7---|
a-7-7-7-7-7-7---|
e-5-5-5-5-5-5---|


e--------------------------------------|
b--------------------------------------|
g--------------------------------------|
d-4~--7~--2~--2~--4~--7~--2~--22-22-22-|
a-4~--7~--2~--2~--4~--7~--2~--22-22-22-|
e-2~--5~--0~--0~--2~--5~--0~--00-00-00-|

Lead
e-------------------------------------------------------44444444-|
b-4h55555-444-555-4h55555-444-----4h55555-444-555-77777----------|
g-----------------------------666--------------------------------|
d----------------------------------------------------------------|
a----------------------------------------------------------------|
e----------------------------------------------------------------|

e------------------------|
b-4h55555-777-999-121212-|
g------------------------|
d------------------------|
a------------------------|
e------------------------|

Final Chorus
Rhythm
e---------------------------------------------------------------------------|
b---------------------------------------------------------------------------|
g---------9-------------------9-------------9-------------------9-----------|
d-11~---9-9-7~---11-9-11~---9-9-7~--11~---9-9-7~---11-9-11~---9-9-7~--77-77-|
a-11~---9-7-7~---11-9-11~---9-7-7~--11~---9-7-7~---11-9-11~---9-7-7~--77-77-|
e--9~---7---5~----9-7--9~---7---5~---9~---7---5~----9-7--9~---7---5~--55-55-|

e--------------------------------------------------|
b--------------------------------------------------|
g-----------------------9-9------------------------|
d-11--11-11--11-11--9-9-9-9-7--7-7--7-7--11-11-9-9-|
a-11--11-11--11-11--9-9-7-7-7--7-7--7-7--11-11-9-9-|
e--9---9--9---9--9--7-7-----5--5-5--5-5---9--9-7-7-|

e------------------------------------------------|
b------------------------------------------------|
g-----------------------9-9----------------------|
d-11--11-11--11-11--9-9-9-9-7--7-7-7-7-7-7-7-7-7-|
a-11--11-11--11-11--9-9-7-7-7--7-7-7-7-7-7-7-7-7-|
e--9---9--9---9--9--7-7-----5--5-5-5-5-5-5-5-5-5-|

Lead
e-----------------------------------------12b~---12b-12b-12b~---12b-12b-12b~---12b-12b-12b-|
b-13b~---13b~---13b~---13b~---13b-13b-13b--------------------------------------------------|
g------------------------------------------------------------------------------------------|
d------------------------------------------------------------------------------------------|
a------------------------------------------------------------------------------------------|
e------------------------------------------------------------------------------------------|

e-16161616161616161616161616161616-21212121212121212121212121212121-|
b-------------------------------------------------------------------|
g-------------------------------------------------------------------|
d-------------------------------------------------------------------|
a-------------------------------------------------------------------|
e-------------------------------------------------------------------|

End with
Rhythm
e----------------------|
b----------------------|
g-----------------9~---|
d-7-7-7-7-7-7-7-7-9~---|
a-7-7-7-7-7-7-7-7-7~---|
e-5-5-5-5-5-5-5-5------|

Lead
e-16-14----14-12----12---------|
b-------12-------10----10-9~---|
g------------------------------|
d------------------------------|
a------------------------------|
e------------------------------|
Добавлено: 10.07.2013
Другие материалы по этой песне:
  • Аккорды и текст

Страница создана 10.07.2013
http://primanota.ru/hawthorne-heights/new-winter-chords.htm
Привет, Гость.
Предлагаем пройти революционный курс по гитаре.
Подарок от PrimaNota.Ru, забирай!