PrimaNota.ru - самый крупный в мире бесплатный архив песенных текстов, аккордов, табулатур и нот


Hawthorne Heights - Life On Standby - текст песни, таба, бас-таба, видео

Регистрация Запомнить меня
Войти через:  Facebook Google Twitter Vk Yandex Mail.ru

Hawthorne Heights - Life On Standby - текст песни, таба, бас-таба, видео

Печатать
Просмотров: 98
This is my eighth song tabbing, and I have studied this song to it's "T"
here it is..............................................................
                                                        -T.M.S.H.(S.)-

                                                         
|=======================================================================|
|Hawthorne Heights                                                      |
|=======================================================================|
|"Life on Standby"                                                      |
|=======================================================================|
|Gtr1 - Casey - Rhythm section                                          |
|Gtr2 - Mikah - Lead section                                            |
|Gtr3 - J.T.  - Harmonic section                                        |
|=======================================================================|
|Band...                                                                |
|J.T.  - Lead Vocals/Harmonic Guitar                                    |
|Mikah - Lead Guitar                                                    |
|Casey - Rhythm Guitar/Throat                                           |
|Matt  - Bass Guitar/Backing Vocals                                     |
|Eron  - Drums                                                          |
|=======================================================================|
|U - Strum Up                                                           |
|D - Strum down                                                         |
|=======================================================================|
Tablature............


(INTRO) 

riff 1

Gtr1 (slight dist.)
|----------------------------------|
|----------------------------------|
|----------------------------------|
|-222-222-222-222-222-222-222-xxxx-|
|-222-222-222-222-222-222-222-xxxx-|
|-000-000-000-000-000-000-000-xxxx-|

Gtr2 (dist.)
|----------------------------------|
|----------------------------------|
|----------------------------------|
|-222-222-222-222-222-222-222-xxxx-|
|-222-222-222-222-222-222-222-xxxx-|
|-000-000-000-000-000-000-000-xxxx-|

Gtr3 (overdrive)
|----------------------------------|
|----------------------------------|
|----------------------------------|
|-222-222-222-222-222-222-222-xxxx-|
|-222-222-222-222-222-222-222-xxxx-|
|-000-000-000-000-000-000-000-xxxx-|
  DUD DUD DUD DUD DUD DUD DUD DUDU

riff 2 pt.1 

Gtr1
|----------------------------------|-----------------------------------|
|----------------------------------|-----------------------------------|
|----------------------------------|-----------------------------------|
|---2-2-2-2-2-2-2---2-2-2-2-2-2-2--|-7--------5------------------------|
|---2-2-2-2-2-2-2---2-2-2-2-2-2-2--|-5--------3--------2---------------|
|-000-0-0-0-0-0-0-000-0-0-0-0-0-0--|-------------------0---------------|
  **              **       

Gtr2
|----------------------------------|--------------7--------------------|
|----------------------------------|---7--------7---7------------------|
|----------------------------------|-----9/11--------------------------|
|----5-4-5-2---------5-7-5-2-------|-----------------------------------| 
|----------------------------------|-------------------2---------------|
|-00--------------00---------------|-------------------0---------------|
  **              **          

Gtr3
|----------------------------------|-----------------------------------|
|----------------------------------|-----------------------------------|
|----------------------------------|-----------------------------------|
|---2-2-2-2-2-2-2---2-2-2-2-2-2-2--|-7--------5------------------------|
|---2-2-2-2-2-2-2---2-2-2-2-2-2-2--|-5--------3--------2---------------|
|---0-0-0-0-0-0-0---0-0-0-0-0-0-0--|-------------------0---------------|

pt.2
 
Gtr1
|----------------------------------|-------------------------------------|
|----------------------------------|-------------------------------------|
|----------------------------------|-------------------------------------|
|---2-2-2-2-2-2-2---2-2-2-2-2-2-2--|-7--------5--------------------------|
|---2-2-2-2-2-2-2---2-2-2-2-2-2-2--|-5--------3--------22-2-222-2-22-----|
|-000-0-0-0-0-0-0-000-0-0-0-0-0-0--|-------------------00-0-000-0-00-----|
  **              **                                   ** * *** * **

Gtr2
|----------------------------------|--------------7----------------------|
|----------------------------------|---7--------7---7--------------(7)~--|
|----------------------------------|-----9/11----------------------------|
|----5-4-5-2---------5-7-5-2-------|-------------------------------------| 
|----------------------------------|-------------------22-2-222-2-2------|
|-00--------------00---------------|-------------------00-0-000-0-0------|
  **              **                                   ** * *** * *

Gtr3
|----------------------------------|-------------------------------------|
|----------------------------------|-------------------------------------|
|----------------------------------|-------------------------------------|
|---2-2-2-2-2-2-2---2-2-2-2-2-2-2--|-7--------5--------------------------|
|---2-2-2-2-2-2-2---2-2-2-2-2-2-2--|-5--------3--------2-----------------|
|---0-0-0-0-0-0-0---0-0-0-0-0-0-0--|-------------------0-----------------|



(VERSE 1)
                                                |
Gtr1                                            | play this part x2
|-----------------------------|---------------| ||-----------------|
|---------7-------------------|---------7-----| ||---------7-------|
|-------7-------------7-------|-------7-------| ||-------7---7-----|
|---5--------------5----------|---5-----------| ||---5-----------5-|  
|-7---7----------7---7--------|-7---7---------| ||-7---7-------7---| 
|-----------------------------|---------------| ||-----------------|
                                                |
Gtr2                                            |
|-----------------------------|---------------| ||-----------------|
|-(7)-------------------------|(m)------------| ||(volume increase)|
|-----------------------------|---------------| ||-----------------|
|-----------------------------|---------------| ||-----------------|
|-----------------------------|---------------| ||-----------------|
|-----------------------------|---------------| ||-----------------|
                                                |
Gtr3                                            |
|-----------------------------|---------------| ||-----------------|
|-----------------------------|---------------| ||-----------------|
|-----------------------------|---------------| ||-----------------|
|-----------------------------|---------------| ||-----------------|
|-----------------------------|---------------| ||-----------------|
|-----------------------------|---------------| ||-----------------|
                                                |
                                                |

PLAY THIS AGAIN BUT ADDING THE FOLLOWING in Gtr2:


Gtr1                                             play this part x2(Gtr1)
|-----------------------------|---------------| ||-----------------|
|---------7-------------------|---------7-----| ||---------7-------|
|-------7-------------7-------|-------7-------| ||-------7---7-----|
|---5--------------5----------|---5-----------| ||---5-----------5-|  
|-7---7----------7---7--------|-7---7---------| ||-7---7-------7---| 
|-----------------------------|---------------| ||-----------------|
                                                
Gtr2
|-17------------15------------|-12------------| ||-----------------|
|-------15~~~---------12~~~---|-------10~~~---| ||-\5---12~~~------|
|-----------------------------|---------------| ||-----------------|
|-----------------------------|---------------| ||-----------------|
|-----------------------------|---------------| ||-----------------|
|-----------------------------|---------------| ||-----------------|

Gtr3
|-----------------------------|---------------| ||-----------------|
|-----------------------------|---------------| ||-----------------|
|-----------------------------|---------------| ||-----------------|
|-----------------------------|---------------| ||-----------------|
|-----------------------------|---------------| ||-----------------|
|-----------------------------|---------------| ||-----------------|
 

Gtr1                                             play this part x2(Gtr1)
|-----------------------------|---------------| ||-----------------|
|---------7-------------------|---------7-----| ||---------7-------|
|-------7-------------7-------|-------7-------| ||-------7---7-----|
|---5--------------5----------|---5-----------| ||---5-----------5-|  
|-7---7----------7---7--------|-7---7---------| ||-7---7-------7---| 
|-----------------------------|---------------| ||-----------------|
                                                
Gtr2
|-17------------15------------|-12------------| ||-----------------|
|-------15~~~---------12~~~---|-------10~~~---| ||-\5---12~~~------|
|-----------------------------|---------------| ||-----------------|
|-----------------------------|---------------| ||-----------------|
|-----------------------------|---------------| ||-----------------|
|-----------------------------|---------------| ||-----------------|

Gtr3
|-----------------------------|---------------| ||-----------------|
|-----------------------------|---------------| ||-----------------|
|-----------------------------|---------------| ||-----------------|
|-----------------------------|---------------| ||-----------------|
|-----------------------------|---------------| ||-----------------|
|-----------------------------|---------------| ||-----------------|


THEN YOU PLAY IT, LIKE THIS<........


Gtr1                                             play this part x2(Gtr1)
|-----------------------------|---------------| ||-----------------|
|---------7-------------------|---------7-----| ||---------7-------|
|-------7-------------7-------|-------7-------| ||-------7---7-----|
|---5--------------5----------|---5-----------| ||---5-----------5-|  
|-7---7----------7---7--------|-7---7---------| ||-7---7-------7---| 
|-----------------------------|---------------| ||-----------------|

Gtr2
|-15-14-15-14-15-14-12-10-12-10-12-10-3--3-3--3-3-5-5-5-5-55-|
|------------------------------------------------------------|
|------------------------------------------------------------|
|------------------------------------------------------------|
|------------------------------------------------------------|
|------------------------------------------------------------|

Gtr3
|-----------------------------|---------------| ||-----------------|
|-----------------------------|---------------| ||-----------------|
|-----------------------------|---------------| ||-----------------|
|-----------------------------|---------------| ||-----------------|
|-----------------------------|---------------| ||-----------------|
|-----------------------------|---------------| ||-----------------|


(CHORUS)

Gtr1
|--------------------------------|----------------------------------|
|--------------------------------|----------------------------------|
|--------------------------------|----9-------7--------5--------4/5-|
|5-5-5-5-5-5-5/7-5-5-5-5-5-5-5/7-|----7-------5--------3--------2/3-|
|3-3-3-3-3-3-3/5-3-3-3-3-3-3-3/5-|----------------------------------|
|--------------------------------|000-----000-----000-----000-------| x2
                                  ***     ***     ***     ***

Gtr2
|--------------------------------|----------------------------------|
|--------------------------------|----------------------------------|
|--------------------------------|----9-------7--------5--------4/5-|
|5-5-5-5-5-5-5/7-5-5-5-5-5-5-5/7-|----7-------5--------3--------2/3-|
|3-3-3-3-3-3-3/5-3-3-3-3-3-3-3/5-|----------------------------------|
|--------------------------------|000-----000-----000-----000-------| x2
                                  ***     ***     ***     ***

Gtr3
|--------------------------------|----------------------------------|
|--------------------------------|----------------------------------|
|--------------------------------|----9-------7--------5--------4/5-|
|5-5-5-5-5-5-5/7-5-5-5-5-5-5-5/7-|----7-------5--------3--------2/3-|
|3-3-3-3-3-3-3/5-3-3-3-3-3-3-3/5-|----------------------------------|
|--------------------------------|----------------------------------| x2

THEN YOU PLAY ......

Gtr1
|--------------------------------|
|--------------------------------|
|--------------------------------|
|-5---------------7--------------|
|-3---------------5--------------|
|--------------------------------|

Gtr2
|--------------------------------|
|--------------------------------|
|--------------------------------|
|-5---------------7--------------|
|-3---------------5--------------|
|--------------------------------|

Gtr3
|--------------------------------|
|--------------------------------|
|--------------------------------|
|-5---------------7--------------|
|-3---------------5--------------|
|--------------------------------|


(Verse 2)


Gtr1                                            | play this part x2
|-----------------------------|---------------| ||-----------------|
|---------7-------------------|---------7-----| ||---------7-------|
|-------7-------------7-------|-------7-------| ||-------7---7-----|
|---5--------------5----------|---5-----------| ||---5-----------5-|  
|-7---7----------7---7--------|-7---7---------| ||-7---7-------7---| 
|-----------------------------|---------------| ||-----------------|
                                                |
Gtr2                                            |
|-----------------------------|---------------| ||-----------------|
|-----------------------------|---------------| ||-----------------|
|-----------------------------|---------------| ||-----------------|
|-----------------------------|---------------| ||-----------------|
|-----------------------------|---------------| ||-----------------|
|-----------------------------|---------------| ||-----------------|
                                                |
Gtr3                                            |
|-----------------------------|---------------| ||-----------------|
|-----------------------------|---------------| ||-----------------|
|-----------------------------|---------------| ||-----------------|
|-----------------------------|---------------| ||-----------------|
|-----------------------------|---------------| ||-----------------|
|-----------------------------|---------------| ||-----------------|
                                                |
                                                |


Gtr1                                             play this part x2(Gtr1)
|-----------------------------|---------------| ||-----------------|
|---------7-------------------|---------7-----| ||---------7-------|
|-------7-------------7-------|-------7-------| ||-------7---7-----|
|---5--------------5----------|---5-----------| ||---5-----------5-|  
|-7---7----------7---7--------|-7---7---------| ||-7---7-------7---| 
|-----------------------------|---------------| ||-----------------|
                                                
Gtr2
|-17------------15------------|-12------------| ||-----------------|
|-------15~~~---------12~~~---|-------10~~~---| ||-\5---12~~~------|
|-----------------------------|---------------| ||-----------------|
|-----------------------------|---------------| ||-----------------|
|-----------------------------|---------------| ||-----------------|
|-----------------------------|---------------| ||-----------------|

Gtr3
|-----------------------------|---------------| ||-----------------|
|-----------------------------|---------------| ||-----------------|
|-----------------------------|---------------| ||-----------------|
|-----------------------------|---------------| ||-----------------|
|-----------------------------|---------------| ||-----------------|
|-----------------------------|---------------| ||-----------------|


THEN YOU PLAY IT, LIKE THIS<........


Gtr1                                             play this part x2(Gtr1)
|-----------------------------|---------------| ||-----------------|
|---------7-------------------|---------7-----| ||---------7-------|
|-------7-------------7-------|-------7-------| ||-------7---7-----|
|---5--------------5----------|---5-----------| ||---5-----------5-|  
|-7---7----------7---7--------|-7---7---------| ||-7---7-------7---| 
|-----------------------------|---------------| ||-----------------|

Gtr2
|-15-14-15-14-15-14-12-10-12-10-12-10-3--3-3--3-3-5-5-5-5-55-|
|------------------------------------------------------------|
|------------------------------------------------------------|
|------------------------------------------------------------|
|------------------------------------------------------------|
|------------------------------------------------------------|

Gtr3
|-----------------------------|---------------| ||-----------------|
|-----------------------------|---------------| ||-----------------|
|-----------------------------|---------------| ||-----------------|
|-----------------------------|---------------| ||-----------------|
|-----------------------------|---------------| ||-----------------|
|-----------------------------|---------------| ||-----------------|



(CHORUS)

Gtr1
|--------------------------------|----------------------------------|
|--------------------------------|----------------------------------|
|--------------------------------|----9-------7--------5--------4/5-|
|5-5-5-5-5-5-5/7-5-5-5-5-5-5-5/7-|----7-------5--------3--------2/3-|
|3-3-3-3-3-3-3/5-3-3-3-3-3-3-3/5-|----------------------------------|
|--------------------------------|000-----000-----000-----000-------| x2
                                  ***     ***     ***     ***

Gtr2
|--------------------------------|----------------------------------|
|--------------------------------|----------------------------------|
|--------------------------------|----9-------7--------5--------4/5-|
|5-5-5-5-5-5-5/7-5-5-5-5-5-5-5/7-|----7-------5--------3--------2/3-|
|3-3-3-3-3-3-3/5-3-3-3-3-3-3-3/5-|----------------------------------|
|--------------------------------|000-----000-----000-----000-------| x2
                                  ***     ***     ***     ***

Gtr3
|--------------------------------|----------------------------------|
|--------------------------------|----------------------------------|
|--------------------------------|----9-------7--------5--------4/5-|
|5-5-5-5-5-5-5/7-5-5-5-5-5-5-5/7-|----7-------5--------3--------2/3-|
|3-3-3-3-3-3-3/5-3-3-3-3-3-3-3/5-|----------------------------------|
|--------------------------------|----------------------------------| x2

THEN YOU PLAY ......

Gtr1
|--------------------------------|
|--------------------------------|
|--------------------------------|
|-5---------------7--------------|
|-3---------------5--------------|
|--------------------------------|

Gtr2
|--------------------------------|
|--------------------------------|
|--------------------------------|
|-5---------------7--------------|
|-3---------------5--------------|
|--------------------------------|

Gtr3
|--------------------------------|
|--------------------------------|
|--------------------------------|
|-5---------------7--------------|
|-3---------------5--------------|
|--------------------------------|



(BRIDGE)

Gtr1
|----------------------------|------------------------------|
|----------------------------|------------------------------|
|----------------------------|------------------------------|
|-------2-------------0------|-----------------------0------|
|----------------------------|----------3-------------------|
|-1-------------1------------|--1--------------1------------|

Gtr2
DOES NOT PLAY 

Gtr3 
DOES NOT PLAY 



(OUTRO)

Gtr 3 (alone)(overdrive)
|-----------------|
|-----------------|
|-----------------|
|-5-5-55---5-5-55-|
|-3-3-33---3-3-33-|
|-----------------|


THEN...


Gtr1 
|-----------------------------------------|---------------------------|
|-----------------------------------------|---------------------------|
|-----------------------------------------|---------------------------|
|-9-9-99-----9-9-99-----5-5-55-----5-5-55-|---9-9-99-----9-9-99-------|
|-7-7-77-----7-7-77-----3-3-33-----3-3-33-|---7-7-77-----7-7-77-------|
|-----------------------------------------|---------------------------|

Gtr2
|-----------------------------10/---------|---------10/---------------|
|------------------------------8/---------|9/--------8/----------9/11-|
|------------------------------8/---------|7/--------8/----------7/9--|
|-9-9-99-----9-9-99-----5-5-55-----5-5-55-|---9-9-99-----9-9-99/------|
|-7-7-77-----7-7-77-----3-3-33-----3-3-33-|---7-7-77-----7-7-77/------|
|-----------------------------------------|---------------------------|

Gtr3
|-----------------------------------------|---------------------------|
|-----------------------------------------|---------------------------|
|-----------------------------------------|---------------------------|
|-9-9-99-----9-9-99-----5-5-55-----5-5-55-|---9-9-99-----9-9-99-------|
|-7-7-77-----7-7-77-----3-3-33-----3-3-33-|---7-7-77-----7-7-77-------|
|-----------------------------------------|---------------------------|

into..............

Gtr1
|------------------------|-----------------------|
|------------------------|-----------------------|
|------------------------|-----------------------|
|-5--5--5--5--5--5--5--5-|9--9--9--9--9--9--9--9-|
|-3--3--3--3--3--3--3--3-|7--7--7--7--7--7--7--7-|
|------------------------|-----------------------| x2

Gtr2
|------------------------|-----------------------|
|/12----------12-------12|\7----------7-------7--|
|---12\--12-----12/--12--|---7\--7------7/--7----|
|------12--(12)----12-(12)-----7--(7)-----7---(7)|
|------------------------|-----------------------|
|------------------------|-----------------------| x2

Gtr3
|------------------------|-----------------------|
|------------------------|-----------------------|
|------------------------|-----------------------|
|-5--5--5--5--5--5--5--5-|9--9--9--9--9--9--9--9-|
|-3--3--3--3--3--3--3--3-|7--7--7--7--7--7--7--7-|
|------------------------|-----------------------| x2


\last part of Outro/...


Gtr1
|------------------------|-----------------------|
|------------------------|-----------------------|
|------------------------|-----------------------|
|-5--5--5--5--5--5--5--5-|9--9--9--9--9--9--9--9-|
|-3--3--3--3--3--3--3--3-|7--7--7--7--7--7--7--7-|
|------------------------|-----------------------| x2

Gtr2
|-14-----14--14----15----|         |----------------------|
|---15-----15--15----15--|         |----------------------|
|-----16--------(16)---16|         |-12----------12p------|
|------------------------|         |---12p--12------12----|
|------------------------|         |------12--(12)-----12-|
|------------------------|x3.....  |----------------------|

Gtr3
|------------------------|-----------------------|
|------------------------|-----------------------|
|------------------------|-----------------------|
|-5--5--5--5--5--5--5--5-|9--9--9--9--9--9--9--9-|
|-3--3--3--3--3--3--3--3-|7--7--7--7--7--7--7--7-|
|------------------------|-----------------------| x2


END ON..............

Gtr1
|------------------------------------------------|
|------------------------------------------------|
|------------------------------------------------|
|-5----------------------------------------------|
|-3----------------------------------------------|
|------------------------------------------------|

Gtr2
|------------------------------------------------|
|------------------------------------------------|
|------------------------------------------------|
|-5----------------------------------------------|
|-3----------------------------------------------|
|------------------------------------------------|

Gtr3
|------------------------------------------------|
|------------------------------------------------|
|------------------------------------------------|
|-5----------------------------------------------|
|-3----------------------------------------------|
|------------------------------------------------|

END...............................................thanks. please rate
                                  
                                                                -T.M.S.H (S.)
Добавлено: 14.08.2013
Другие материалы по этой песне:
  • Аккорды и текст

Страница создана 22.02.2012
http://primanota.ru/hawthorne-heights/life-on-standby-chords.htm
Привет, Гость.
Предлагаем пройти революционный курс по гитаре.
Подарок от PrimaNota.Ru, забирай!