PrimaNota.ru - самый крупный в мире бесплатный архив песенных текстов, аккордов, табулатур и нот


Hawthorne Heights - Let Go Of Everything You Know - таба, видео

Регистрация Запомнить меня
Войти через:  Facebook Google Twitter Vk Yandex Mail.ru

Hawthorne Heights - Let Go Of Everything You Know - таба, видео

Печатать
Просмотров: 112
An awesome song that no one has tabbed yet so here it is.

Key
------
~ Hold note
. Palm mute
x Mute note
h Hammer on
/ Slide

Intro
Guitar 1
(0:00 - 0:20)
e|--------------------------------------------------------------------------|
B|--------------------------------------------------------------------------|
G|--------------------------------------------------------------------------|
D|----2~-----44444--22222---------------44444--22222------------------------|
A|----0~-----22222--00000--55555-55555--22222--00000--55555--55555----------|
E|-------------------------33333-33333----------------33333--33333----------|
Guitar 2
(comes in at 0:11)
e|--------------------------------------------------------------------------|
B|--------------------------------------------------------------------------|
G|----777-/999-/11-11-11/14-14-14--14-14-14-14-14--13--13-13-13-13-13-------|
D|----xxx-/xxx-/x--x--x-/x--x--x---x--x--x--x--x---x---x--x--x--x--x--------|
A|----555-/777-/9--9--9-/12-12-12--12-12-12-12-12--11--11-11-11-11-11-------|
E|--------------------------------------------------------------------------|

e|--------------------------------------------------------------------------|
B|--------------------------------------------------------------------------|
G|-----11-11-11-11-11--10-10-10-10-10---------------------------------------|
D|-----x--x--x--x--x---x--x--x--x--x----------------------------------------|
A|-----9--9--9--9--9---8--8--8--8--8----------------------------------------|
E|--------------------------------------------------------------------------|
Intro
(0:20-0:32)
Guitar 1 
e|--------------------------------------------------------------------------|
B|--------------------------------------------------------------------------|
G|--------------------------------------------------------------------------|
D|----2-2222-4-4444-2-2222--------2-2222-2-2222-2-2-2-222222----------------|
A|----0-0000-2-2222-0-0000-5-5555-0-0000-0-0000-0-0-0-000000----------------|
E|-------------------------3-3333-------------------------------------------|
                                                      ......
Guitar 2
e|--------------------------------------------------------------------------|
B|----10---10---12---12---10---10---10---9---9---10---10---10---10---10-----|
G|-------9----9----9----9----9----9----9---9---9----9----9----9----9----9---|
D|--------------------------------------------------------------------------|
A|--------------------------------------------------------------------------|
E|--------------------------------------------------------------------------|

e|--------------------------------------------------------------------------|
B|--------------------------------------------------------------------------|
G|---999999-----------------------------------------------------------------|
D|---xxxxxx-----------------------------------------------------------------|
A|---777777-----------------------------------------------------------------|
E|--------------------------------------------------------------------------|

Verse
(0:32-55)
Guitar 1
e|--------------------------------------------------------------------------|
B|-----------5~----2~----------5~----2~-------------------------------------|
G|--------------------------------------------------------------------------|
D|---2~----------------2~---------------------------------------------------|
A|---0~--5~------------0~--5~-----------------------------------------------|
E|-------3~----------------3~-----------------------------------------------|

Guitar 2
e|--------------------------------------------------------------------------|
B|----2-2--2-2-22h3--2-2--2-2-335--2-2--2-2-2--2-2--2-2-2-------------------|
G|----2-2--2-2-------2-2--2-2------2-2--2-2-2--2-2--2-2-2-------------------|
D|--------------------------------------------------------------------------|
A|--------------------------------------------------------------------------|
E|--------------------------------------------------------------------------|

e|--------------------------------------------------------------------------|
B|---2-2--2-2-22h3--2-2--2-2-335--2-2--2-2-2--2-2--2-2-2--------------------|
G|---2-2--2-2-------2-2--2-2------2-2--2-2-2--2-2--2-2-2--------------------|
D|--------------------------------------------------------------------------|
A|--------------------------------------------------------------------------|
E|--------------------------------------------------------------------------|
Pre Chorus
(0:55-1:06)
Guitar 1
e|--------------------------------------------------------------------------|
B|--------------------------------------------------------------------------|
G|--------------------------------------------------------------------------|
D|---2~---------------------------2~----------------------------------------|
A|---0~---------------------------0~----------------------------------------|
E|--------------------------------------------------------------------------|

Guitar 2
e|--------------------------------------------------------------------------|
B|---7~--9~---11~--14~----77777777-99999999-11-11-11-11-11-11-11-11---------|
G|---x~--x~---x~---x-~----xxxxxxxx-xxxxxxxx-x--x--x--x--x--x--x--x----------|
D|---5~--7~---9~---12~----55555555-77777777-9--9--9--9--9--9--9--9----------|
A|--------------------------------------------------------------------------|
E|--------------------------------------------------------------------------|

e|--------------------------------------------------------------------------|
B|--------------------------------------------------------------------------|
G|---14-14-14-14-14-14-14-14------------------------------------------------|
D|---x--x--x--x--x--x--x--x-------------------------------------------------|
A|---12-12-12-12-12-12-12-12------------------------------------------------|
E|--------------------------------------------------------------------------|
Chorus
(1:06-1:33)
Guitar 1
e|--------------------------------------------------------------------------|
B|--------------------------------------------------------------------------|
G|--------------------------------------------------------------------------|
D|--22222-22222-44444-44444-22222-------------------------------------------|
A|--00000-00000-22222-22222-00000-55555-55555-55555-------------------------|
E|--------------------------------33333-33333-33333-------------------------|

e|--------------------------------------------------------------------------|
B|--------------------------------------------------------------------------|
G|--------------------------------------------------------------------------|
D|--22222-22222-44444-44444-22222---------------------2-2-2-222222----------|
A|--00000-00000-22222-22222-00000-55555-55555-55555---0-0-0-000000----------|
E|--------------------------------33333-33333-33333-------------------------|
                                                            ......
Guitar 2
e|--------------------------------------------------------------------------|
B|--10---10---12---12---10---10---9---9---10---10---9---9-------------------|
G|-----9----9----9----9----9----9---9---9----9----9---9---9-----------------|
D|--------------------------------------------------------------------------|
A|--------------------------------------------------------------------------|
E|--------------------------------------------------------------------------|

e|--------------------------------------------------------------------------|
B|-------------------------------10---10---12---12---10---10---9---9--------|
G|---77-999/-11-11-11/-14-14-14-----9----9----9----9----9----9---9----------|
D|---xx-xxx/--x--x--x/-x--x--x----------------------------------------------|
A|---55-777/--9--9--9/-12-12-12---------------------------------------------|
E|--------------------------------------------------------------------------|
-
e|--------------------------------------------------------------------------|
B|---10---10---9---9--------------------------------------------------------|
G|-9----9----9---9---9---77-999/-11-11-11/-14-14-14---14-14-14---999999-----|
D|-----------------------xx-xxx/--x--x--x/-x--x--x----x--x--x----xxxxxx-----|
A|-----------------------55-777/--9--9--9/-12-12-12---12-12-12---777777-----|
E|--------------------------------------------------------------------------|

Repeat Verse (1:33-1:56)

Pre Chorus
(1:56-2:02)
Guitar 1
e|--------------------------------------------------------------------------|
B|--------------------------------------------------------------------------|
G|--------------------------------------------------------------------------|
D|-2~-----------------------------------------------------------------------|
A|-0~-----------------------------------------------------------------------|
E|--------------------------------------------------------------------------|

Guitar 2
e|--------------------------------------------------------------------------|
B|--------------------------------------------------------------------------|
G|---------7~---9~--11~----14~----------------------------------------------|
D|---------x~---x~---x~----x-~----------------------------------------------|
A|---------5~---7~---9~----12~----------------------------------------------|
E|--------------------------------------------------------------------------|

Repeat Chorus (2:02-2:27)

Interlude
(2:27-2:45)
Guitar 1
e|--------------------------------------------------------------------------|
B|--------------------------------------------------------------------------|
G|------------------7777777777777777-9999999999999999-7777777777777777------|
D|-----222222-------xxxxxxxxxxxxxxxx-xxxxxxxxxxxxxxxx-xxxxxxxxxxxxxxxx------|
A|-----000000-------5555555555555555-7777777777777777-5555555555555555------|
E|--------------------------------------------------------------------------|

e|--------------------------------------------------------------------------|
B|--------------------------------------------------------------------------|
G|---99999999-11-11-11-11-11-11-11-11----11--11--11-------------------------|
D|---xxxxxxxx-x--x--x--x--x--x--x--x-----x---x---x--------(2:40)------------|
A|---77777777-9--9--9--9--9--9--9--9-----9---9---9--------5-5-5-------------|
E|--------------------------------------------------------3-3-3-------------|


Guitar 2
e|--------------------------------------------------------------------------|
B|--2-2--2-22h3-2-2--2-2335--2-2--2-22h3-2-2--2-2335--------(2:43)----------|
G|--2-2--2-2----2-2--2-2-----2-2--2-2----2-2--2-2----------9-9/-11-11-------|
D|---------------------------------------------------------x-x/-x--x--------|
A|---------------------------------------------------------7-7/-9--9--------|
E|--------------------------------------------------------------------------|

Chorus
(2:45-3:10)
Guitar 1
e|--------------------------------------------------------------------------|
B|--------------------------------------------------------------------------|
G|--------------------------------------------------------------------------|
D|--22222-22222-44444-44444-22222-------------------------------------------|
A|--00000-00000-22222-22222-00000-55555-55555-55555-------------------------|
E|--------------------------------33333-33333-33333-------------------------|

e|--------------------------------------------------------------------------|
B|--------------------------------------------------------------------------|
G|--------------------------------------------------------------------------|
D|--22222-22222-44444-44444-22222---------------------2-2-2-----------------|
A|--00000-00000-22222-22222-00000-55555-55555-55555---0-0-0-----------------|
E|--------------------------------33333-33333-33333-------------------------|
                                                            
Guitar 2
e|--------------------------------------------------------------------------|
B|--10---10---12---12---10---10---9---9---10---10---9---9-------------------|
G|-----9----9----9----9----9----9---9---9----9----9---9---9-----------------|
D|--------------------------------------------------------------------------|
A|--------------------------------------------------------------------------|
E|--------------------------------------------------------------------------|

e|--------------------------------------------------------------------------|
B|--------------------------------10101010101010101010101010101010----------|
G|---77-999/-11-11-11/-14-14-14---------------------------------------------|
D|---xx-xxx/--x--x--x/-x--x--x----------------------------------------------|
A|---55-777/--9--9--9/-12-12-12---------------------------------------------|
E|--------------------------------------------------------------------------|
-
e|--------------------------------------------------------------------------|
B|---10---10---9---9--------------------------------------------------------|
G|-9----9----9---9---9---77-999/-11-11-11/-14-14-14---14-14-14--------------|
D|-----------------------xx-xxx/--x--x--x/-x--x--x----x--x--x---------------|
A|-----------------------55-777/--9--9--9/-12-12-12---12-12-12--------------|
E|--------------------------------------------------------------------------|

Outro
(3:10-3:25)
Guitar 1
e|--------------------------------------------------------------------------|
B|------------2-2-2--2-2-2--2-2-2--2-2-2--(play this while holding out the--|
G|------------2-2-2--2-2-2--2-2-2--2-2-2---previous note.)------------------|
D|--222222-2~---------------------------------------------------------------|
A|--000000-0~---------------------------------------------------------------|
E|--------------------------------------------------------------------------|
    ......
Guitar 2
e|--------------------------------------------------------------------------|
B|--------------------------------------------------------------------------|
G|---999999---14~-----------------------------------------------------------|
D|---xxxxxx---x-~-----------------------------------------------------------|
A|---777777---12~-----------------------------------------------------------|
E|--------------------------------------------------------------------------|
Добавлено: 19.09.2013
Другие материалы по этой песне:
  • Аккорды и текст

Страница создана 19.09.2013
http://primanota.ru/hawthorne-heights/let-go-of-everything-you-know-chords.htm
Привет, Гость.
Предлагаем пройти революционный курс по гитаре.
Подарок от PrimaNota.Ru, забирай!