PrimaNota.ru - самый крупный в мире бесплатный архив песенных текстов, аккордов, табулатур и нот


Hawthorne Heights - If Only You Were Lonely - таба, видео

Регистрация Запомнить меня
Войти через:  Facebook Google Twitter Vk Yandex Mail.ru

Hawthorne Heights - If Only You Were Lonely - таба, видео

Печатать
Просмотров: 81
-------------------------------------------------------------------------------
	       If Only You Were Lonely Album - Hawthorne Heights
-------------------------------------------------------------------------------

This is an awesome album. I hope you like it.

Tuning is standard in all songs except Dead In The Water

Song list and credits:

1. This Is Who We Are:emokid24401
2. We Are So Last Year:jon_ikan
3. Language Lessons (5 Words Or Less):Unregistered
4. Pens And Needles:Unregistered
5. Saying Sorry:emokid24401
6. Dead In The Water:shecterboy910
7. I Am On Your Side:sumguy67
8. Breathing In Sequence:hasteTheDay118
9. Light Sleeper:shecterboy910
10. Cross Me Off Your List:lilmoose06
11. Where Can I Stab Myself In The Ears:fenderbassist
12. Decembers:guitardo19


=============================================================================
                              This Is Who We Are
=============================================================================
*= palm mute
/= slide up
x= mute
~= hold
                         Guitar 1

Intro x2
e---------------------------------------------------------|
b------7-7/8----7-7/8----7-7/8-------10-10/12--10-10/12---|
g------x-x-x----x-x-x----x-x-x--------x-x-x-----x--x-x----|
d--22--4-4/5-22-4-4/5-22-4-4/5-222-22-7--7/9-22-7--7/9-22-|
a--22--------22-------22-------222-22--------22--------22-|
E--00--------00-------00-------000-00--------00--------00-|
   **        **       **       *** **        **        **
1st ending                    2nd ending
e--10-10--------10-10-------  e--10-----12-10--10-----12-10------|
b-------10-12-12-----12-10~-  b----12-10-----12--12-10-----10-8~-|
g---------------------------  g----------------------------------|
d---------------------------  d----------------------------------|
a---------------------------  a----------------------------------|
E---------------------------  E----------------------------------|

Verse 1
e-----------------------------------------|
b-----------------------------------------|
g--4-54----4-4-54----4-4-54-----4-4-54----|
d--4-54-77-4-4-54-77-4-4-54-77--4-4-54-77-|
a--2-32-77-2-2-32-77-2-2-32-77--2-2-32-77-|
E-------55--------55--------55---------55-|


Pre Chorus
e---------|
b---------|
g------5~-|
d--2~--5~-|
a--2~--3~-|
E--0~-----|

Chorus
e----------------------------------|
b----------------------------------|
g-----------------5555555577777777-|
d-22222222222222225555555577777777-
a-22222222222222223333333355555555-
E-0000000000000000-----------------

Verse 2
e------------------------------------------------------------------|
b------------------------------------------------------------------|
g----------------------------------5-5555555555555-7-7777777777777-|
d--2-2222222222222-2-2222222222222-5-5555555555555-7-7777777777777-|
a--2-2222222222222-2-2222222222222-3-3333333333333-5-5555555555555-|
E--0-0000000000000-0-0000000000000---------------------------------|
     *************   *************   *************   *************
Bridge x4
e-----------------------------------------------------|
b-----------------------------------------------------|
g-------------------------55555-55-55-55555-------777-|
d-22222-22-22-22222-22-22-55555-55-55-55555-77-77-777-|
a-22222-22-22-22222-22-22-33333-33-33-33333-77-77-555-|
E-00000-00-00-00000-00-00-------------------55-55-----|
  ***** ** ** ***** ** ** ***** ** ** ***** ** ** ***
3rd n 4th time through w/ no p.m.

Before Last Chorus
e---------------------------------------------|
b----7-7/8----7-7/8-------10-10/12---10-10/12-|
g----x-x-x----x-x-x--------x--x-x-----x--x-x--|
d-22-4-4/5-22-4-4/5-222-22-7--7/9--22-7--7/9--|
a-22-------22-------222-22---------22---------|
E-00-------00-------000-00---------00---------|
  **       **       *** **         **
e--------------------------------------------------------|
b--------7-7/8--------7-7/8-------10-10/12---10-10/12----|
g-----55-x-x-x-555-55-x-x-x-555-77-x--x-x--77-x--x-x--77-|
d-222-55-4-4/5-555-55-4-4/5-555-77-7--7/9--77-7--7/9--77-|
a-222-33-------333-33-------333-55---------55---------55-|
E-000----------------------------------------------------|
  *** **       *** **       *** **         **         **
Outro
e-----------------|
b----7-7/8---10---|
g----x-x-x----x-9-|
d-22-4-4/5-22-7-9-|
a-22-------22---7-|
E-00-------00-----|
  **       **
                            Guitar 2
Intro x2
e-------------------       -------------------------------------|
b----7-7/8----7-7/8-       --------------------7777777777777777-|
g----x-x-x----x-x-x-       --55555555555555555-7777777777777777-|
d-22-4-4/5-22-4-4/5- twice --55555555555555555-5555555555555555-|
a-22-------22-------       --33333333333333333------------------|
E-00-------00-------       -------------------------------------|

Verse and pre-chorus guitar 1 only

Chorus x2
e---------------------------|
b--78-78-1012-1012-1210-87~-|
g--xx-xx--x-x--x-x--x-x-xx--|
d--45-45--7-9--7-9--9-7-54~-|
a---------------------------|
E---------------------------|

Bridge                           this part alot
e-----------------------------   ----------|
b--10-------10-------------10-   --7--7--7-|
g----11-------11---------11---   ---7--7---|
d------12-------12-----12-----   -5--5--5--|
a--------10-------10-10-------   ----------|
E-----------------------------   ----------|

when g1 palm mutes g2 does that part too

Before last Chorus
e----------------------     ------------------------------------------------|
b----7-7/8----7-7/8----     ----7-7/8----7-7/8--------7-7/8--------7-7/8----|
g----x-x-x----x-x-x----     -55-x-x-x-55-x-x-x-555-77-x-x-x-777-77-x-x-x-77-|
d-22-4-4/5-22-4-4/5----twice-55-4-4/5-55-4-4/5-555-77-4-4/5-777-77-4-4/5-77-|
a-22-------22----------     -33-------33-------333-55-------555-55-------55-|
E-00-------00-------000     ------------------------------------------------|
  **       **       ***      **       **       *** **       *** **       **
Outro
e-----------------|
b----7-7/8---10---|
g----x-x-x----x-9-|
d-22-4-4/5-22-7-9-|
a-22-------22---7-|
E-00-------00-----|
  **       **
                      Guitar 3
Intro x2
e-------------------       -------------------------------------|
b----7-7/8----7-7/8-       --------------------7777777777777777-|
g----x-x-x----x-x-x-       --55555555555555555-7777777777777777-|
d-22-4-4/5-22-4-4/5- twice --55555555555555555-5555555555555555-|
a-22-------22-------       --33333333333333333------------------|
E-00-------00-------       -------------------------------------|

verse and pre-chorus guitar 1 only

Chorus
e---------------------------------------|
b-78-78-1012-1012-1210-87-12-10---------|
g-xx-xx--x-x--x-x--x-x-xx------12-11----|
d-45-45--7-9--7-9--9-7-54-----------10~-|
a---------------------------------------|
E---------------------------------------|

Bridge                           this part alot
e-----------------------------   ----------|
b--10-------10-------------10-   --7--7--7-|
g----11-------11---------11---   ---7--7---|
d------12-------12-----12-----   -5--5--5--|
a--------10-------10-10-------   ----------|
E-----------------------------   ----------|

Before last Chorus
e----------------------     ------------------------------------------------|
b----7-7/8----7-7/8----     ----7-7/8----7-7/8--------7-7/8--------7-7/8----|
g----x-x-x----x-x-x----     -55-x-x-x-55-x-x-x-555-77-x-x-x-777-77-x-x-x-77-|
d-22-4-4/5-22-4-4/5----twice-55-4-4/5-55-4-4/5-555-77-4-4/5-777-77-4-4/5-77-|
a-22-------22----------     -33-------33-------333-55-------555-55-------55-|
E-00-------00-------000     ------------------------------------------------|
  **       **       ***      **       **       *** **       *** **       **
Outro
e-----------------|
b----7-7/8---10---|
g----x-x-x----x-9-|
d-22-4-4/5-22-7-9-|
a-22-------22---7-|
E-00-------00-----|
  **       **

=============================================================================
                            We Are So Last Year
=============================================================================

Intro

we're falling faster...

|--0(x12)----0(x12)-----------------0(x12)---0(x12)-------------------------0------|
|--2---------2----------------------2--------2----------------------------4---0-2--|
|6---------6----------------------6--------6-----------------------66644-----------|
|6---------6--------4(x8)--7(x7)--6--------6---------4(x8)--7(x7)--66644-----------|
|4---------4--------4------7------4--------4---------4------7------44422-----------|
|-------------------2------5-------------------------2------5----------------------|


Verse

I wish i could have known you better....

|------4---0--------------4---0------------------0------|
|--------4---4-2------------4---4-0----------------4-2--|
|6(x5)--------------6(x5)-----------------4(x5)---------| repeat again.
|6------------------6---------------------4-------------|  
|4------------------4---------------------2-------------|
|-------------------------------------------------------|

...getting worse

|----------| 
|----------| 
|6~--------|
|6~--------|
|4~--------|
|----------|

Pre-Chorus

sleep in...

|--------------------------| 
|--------------------------| 
|--------------------------|
|9--7--9--7--9--7--77------|
|9--7--9--7--9--7--77------|
|7--5--7--5--7--5--55------|
                   xx

Chorus

i just wanted you to know...

|----------------------------------------------------------------------------------|
|----------------------------------------------------------------------------------| 
|----------------------------------------------------------------------------------| 
|7--9--6--*--9--7--9--6--*--9--7(x4)--9(x4)--6(x4)--*(x2)--9(x2)--7(x4)--9(x4)-----|
|7--9--6--*--9--7--9--6--*--9--7------9------6------*------9------7------9---------|
|5--7--4--9--7--5--7--4--9--7--5------7------4------9------7------5------7---------|

2nd Guitar

|0-0(x6)----------0---0-------| 
|--------4-4(x6)----4--4------| repeat accordingly.
|-----------------------------|
|-----------------------------|
|-----------------------------|
|-----------------------------| 

Post-Chorus

...happy ending..

|-----------------------------| 
|-----------------------------|
|6--6-6--666--6-64------------|
|6--6-6--666--6-64------------|
|4--4-4--444--4-42------------|
|-----------------------------| 

Verse (x1)
Pre-Chorus(x1)
Chorus(x1)
Post-Chorus(x1)


                .....with this life

|--0(x12)----0(x12)------------------------|
|--2---------2-----------------------------|
|6---------6-------------------------------|
|6---------6---------4(x8)--7(x7)----------|
|4---------4---------4------7--------------|
|--------------------2------5--------------|

Repeart Chorus(x1) (clean electric - soft)

|----------------------------| 
|----------------------------|
|6--998--4--998--------------|
|6--998--6--998--------------|
|4--776--6--776--------------|
|----------------------------| 

Chorus (x2)

extra riff


|12------16^------------------| 
|--12-------------------------|
|-----------------------------|
|-----------------------------|
|-----------------------------|
|-----------------------------| 

ending

|----------------------------------------------| 
|----------------------------------------------|
|6--6-6--666--6-64--6--6-6--666--6-64--6-66----|
|6--6-6--666--6-64--4--6-6--666--6-64--6-66----|
|4--4-4--444--4-42--4--4-4--444--4-42--4-44----|
|----------------------------------------------|

=============================================================================
                    Language Lessons (5 Words Or Less)
=============================================================================

Intro
e|---------------------------------------------------|
B|---------------------------------------------------|
G|---------------------------------------------------|
D|--7-(x8)--2-(x8)--3-(x16)--7-(x8)--5-(x8)--3-(x16)-|
A|--5-------0-------1--------5-------3-------1-------|
E|---------------------------------------------------|
    .       .       .        .       .       .

    (Figure out the ups and downs on strumming.)    
e|------------------------------------------------|
B|------------------------------------------------|
G|--5--7-7-7-7-7-7-7-7---3-3-3-3-3-3-3-3---5---7--|
D|--5--7-7-7-7-7-7-7-7---3-3-3-3-3-3-3-3---5---7--|
A|--3--5-5-5-5-5-5-5-5---1-1-1-1-1-1-1-1---3---5--|
E|------------------------------------------------|

e|-----------------------------------------------------|
B|-----------------------------------------------------|
G|--10-10-10-10-10-10-10-10-10-10---3-3-3-3-3-3-3-3----|
D|--10-10-10-10-10-10-10-10-10-10---3-3-3-3-3-3-3-3----|
A|---8--8--8--8--8--8--8--8--8--8---1-1-1-1-1-1-1-1----|
E|-----------------------------------------------------|

Verse 1
e|-----------------------------------------------------|
B|-----------------------------------------------------|
G|-----------------------------------------------------| 
D|--7-(x8)-2-(x8)-3-(x16)-7-(x8)-5-(x8)-3-(x16)--------| 
A|--5------0------1-------5------3------1--------------|
E|-----------------------------------------------------|{x2}
    .      .      .       .      .      .

Chorus
e|------------------------------------------|          
B|------------------------------------------|     
G|--5--7-7-7-7-7-7-7-7---3-3-3-3-3-3-3-3----|
D|--5--7-7-7-7-7-7-7-7---3-3-3-3-3-3-3-3----|\
A|--3--5-5-5-5-5-5-5-5---1-1-1-1-1-1-1-1----| \
E|------------------------------------------|  \
                                                \
e|------------------------------------------|\   \       
B|------------------------------------------| \   \
G|--------------------3-3-3-3-3-3-3-3-------|  \   \
D|--3-3-3-3-3-3-3-3---3-3-3-3-3-3-3-3-------|   \   \
A|--3-3-3-3-3-3-3-3---1-1-1-1-1-1-1-1-------|    \   \
E|--1-1-1-1-1-1-1-1-------------------------|     \   \
                                                   \   \Play Together
(Micah's Lead) Play this over the power chords.     \  /
e|-----------------------------------------------|   \/        
B|--5-6-8-6-5-6-8----8-10-11-10-8-10-11---18--13-|   /
G|-----------------------------------------------|  /
D|-----------------------------------------------| /
A|-----------------------------------------------|/
E|-----------------------------------------------|{x2}

Verse 2
e|----------|
B|----------|
G|--7~------|
D|--7~------|
A|--5~------|
E|----------|

e|-----------------------------------------------------|
B|-----------------------------------------------------|
G|-----------------------------------------------------| 
D|--7-(x8)-2-(x8)-3-(x16)-7-(x8)-5-(x8)-3-(x16)--------| 
A|--5------0------1-------5------3------1--------------|
E|-----------------------------------------------------|
    .      .      .       .      .      .

Chorus
e|------------------------------------------|          
B|------------------------------------------|     
G|--5--7-7-7-7-7-7-7-7---3-3-3-3-3-3-3-3----|
D|--5--7-7-7-7-7-7-7-7---3-3-3-3-3-3-3-3----|\
A|--3--5-5-5-5-5-5-5-5---1-1-1-1-1-1-1-1----| \
E|------------------------------------------|  \
                                                \
e|------------------------------------------|\   \       
B|------------------------------------------| \   \
G|--------------------3-3-3-3-3-3-3-3-------|  \   \
D|--3-3-3-3-3-3-3-3---3-3-3-3-3-3-3-3-------|   \   \
A|--3-3-3-3-3-3-3-3---1-1-1-1-1-1-1-1-------|    \   \
E|--1-1-1-1-1-1-1-1-------------------------|     \   \
                                                   \   \Play Together
(Micah's Lead) Play this over the power chords.     \  /
e|-----------------------------------------------|   \/        
B|--5-6-8-6-5-6-8----8-10-11-10-8-10-11---18--13-|   /
G|-----------------------------------------------|  /
D|-----------------------------------------------| /
A|-----------------------------------------------|/
E|-----------------------------------------------|{x2}

Bridge
e|----------------------|           
B|----------------------|   
G|------5-----5-----5---|  
D|----7-----7-----7-----| 
A|--5-----0-----5-------|
E|----------------------|{x4}


e|------------------------------------|          
B|------------------------------------|   
G|-------------------3-3-3-3-3-3-3-3--|  
D|--3-3-3-3-3-3-3-3--3-3-3-3-3-3-3-3--| 
A|--3-3-3-3-3-3-3-3--1-1-1-1-1-1-1-1--|
E|--1-1-1-1-1-1-1-1-------------------|


Chorus
e|------------------------------------------|          
B|------------------------------------------|     
G|--5--7-7-7-7-7-7-7-7---3-3-3-3-3-3-3-3----|
D|--5--7-7-7-7-7-7-7-7---3-3-3-3-3-3-3-3----|
A|--3--5-5-5-5-5-5-5-5---1-1-1-1-1-1-1-1----| 
E|------------------------------------------|  
                                               
e|------------------------------------------------| Play it like this the 1st          
B|------------------------------------------------| time through, then on the 
G|--------------------3-3-3-3---------------------| 2nd time play it like the   
D|--3-3-3-3-3-3-3-3---3-3-3-3---3-3-3-3--5-5-5-5--| regular chorus.     
A|--3-3-3-3-3-3-3-3---1-1-1-1---3-3-3-3--5-5-5-5--| 
E|--1-1-1-1-1-1-1-1-------------1-1-1-1--3-3-3-3--|       
                                . . . .  . . . .              

(Micah's Lead) Play this over the power chords.     
e|-----------------------------------------------|           
B|--5-6-8-6-5-6-8----8-10-11-10-8-10-11---18--13-|   
G|-----------------------------------------------|  
D|-----------------------------------------------| 
A|-----------------------------------------------|
E|-----------------------------------------------|{x2}
       
. - Palm Mute
~ - Let Ring

Intro
Verse 1 
Chorus
Verse 2 
Chorus
Bridge 
Chorus 1 
Chorus

=============================================================================
                             Pens And Needles
=============================================================================

intro                                                   2nd time
e|----------------------------------------------------|---------------------|
B|----------------7 7/9-------------------------------|---------------------|
G|--6x--8 8/9-----8 8/9-----99x-----1111x-------------|-----99x-------------|
D|--6x--------2x---------7x-99x-99x-1111x----(2x)-----|--7x-99x-9-----------|
A|--4x--------2x---------7x-77x-99x--9-9x-------------|--7x-77x-9-----------|
E|------------0x---------5x-----77x-------------------|--5x-----7-----------|

verse
e|---------------------------------77------77-------------------------------|
B|------------------------------------4455----4455-------(4x)---------------|
G|--6-(let ring)-4-(let ring)-----------------------------------------------|
D|--6------------4----------------------------------------------------------|
A|--4------------2----------------------------------------------------------|
E|--------------------------------------------------------------------------|
                        (palm mute).. .... .. ....
pre chorus
e|-------77------77------------99------99-----------------------------------|
B|--4455----4455----4455---4455----4455-----4455----------------------------|
G|--------------------------------------------------------------------------|
D|--------------------------------------------------------------------------|
A|--------------------------------------------------------------------------|
E|--------------------------------------------------------------------------|

chorus
e|--------------------------------------------------------------------------|
B|----------------7 7/9-----------------------------------------------------|
G|--6x--8 8/9-----8 8/9-----99x-----1111x-----------------------------------|
D|--6x--------2x---------7x-99x-99x-1111x----(2x)---------------------------|
A|--4x--------2x---------7x-77x-99x--9-9x-----------------------------------|
E|------------0x---------5x-----77x-----------------------------------------|
 (second guitar in parenthesis)
e|--------------------------------------------------------------------------|
B|--(4-4/5)-----------------------------------------------------------------|
G|---6666----------222222---4x4x4x4-----6-----(let ring out)----------------|
D|---6666--222x2x2-222222---4x4x4x4-----6-----------------------------------|
A|---4444--222x2x2-000000---2x2x2x2-----4-----------------------------------|
E|---------000x0x0----------------------------------------------------------|

2nd verse
e|--------------------------------------------------------------------------|
B|--------------------------9~--(let ring out)------------------------------|
G|--6---(let ring out)------------------------------------------------------|
D|--6-----------------------------------------------------------------------|
A|--4-----------------------------------------------------------------------|
E|--------------------------------------------------------------------------|

e|-----------------------------------------77------77-----------------------|
B|--------------------------------------------4455----4455------------------|
G|---666666-----222222--44444444--------------------------------------------|
D|---666666--2--222222--44444444----(2x)------------------------------------|
A|---444444--2--000000--22222222--------------------------------------------|
E|-----------0--------------------------------------------------------------|
     ......  .  ......  ........
solo after 2nd chorus
e|--------------------------------------------------------------------------|
B|--4h5--5-45-4h5p4p0---(3x)-2/4-4-4----------------------------------------|
G|--------------------------------------------------------------------------|
D|--------------------------------------------------------------------------|
A|--------------------------------------------------------------------------|
E|--------------------------------------------------------------------------|

Breakdown/screaming part
e|--------------------------------------------------------------------------|
B|--------------------------------------------------------------------------|
G|---6-------------4--6-------------4--2----------------44444444------------|
D|---6--2-222-222--4--6--2-222-222--4--2--2-222-222--2--44444444------------|
A|---4--2-222-222--2--4--2-222-222--2--0--2-222-222--2--22222222------------|
E|------0-000-000--------0-000-000--------0-000-000--0----------------------|
        . ... ...        . ... ...        . ... ...


Intro 2x
verse
pre chorus
chorus
verse
solo
scream
slow part
chorus

| /  slide up
| \  slide down
| h  hammer-on
| p  pull-off
| ~  vibrato
| +  harmonic
| x  Mute note

=============================================================================
                                Saying Sorry
=============================================================================

Intro Lead
e--------------------12-14---|
b--14-12-14-12-14-12-14-14---|
g--13-13-13-13-13-13-13-13---|
d--11-11-11-11-11-11-11-11---|
a----------------------------|
E----------------------------|

Intro Rhythm
e-------------------------|
b-------------------------|
g--6-9---6-9---6-9--------|
d--6-9-9-6-9-9-6-9-9-7-9--|
a--4-7-9-4-7-9-4-7-9-7-9--|
E------7-----7-----7-5-7--|

Verse Rhythm x4
e---------------|
b---------------|
g--66-6~--------|
d--66-6~--------|
a--44-4~--------|
E---------------|
   **

Verse Lead
e---------------------------------|
b---------------------------------|
g--66-6~--66-6~--------------88---|
d--66-6~--66-6~-----77-----99--99-|
a--44-4~--44-4~---77--77-77-------|
E---------------55----------------|
   **     **    ******** ********

Pre-Chorus Lead
e--4-44-4-44-4-4h5p4-4-44-4-44-4-44-------------------|
b---5----5------------5----5----5----14-14--14-14-14--|
g------------------------------------13-13--13-13-13--|
d------------------------------------11-11--11-11-11--|
a-----------------------------------------------------|
E-----------------------------------------------------|

Pre-Chorus Rhythm
e----------------------------------------|
b---------------------14-14--14-14-14----|
g---------------------13-13--13-13-13----|
d---------------------11-11--11-11-11----|
a--7-9-11-9-7-9-11-9---------------------|
E--5-7-9--7-5-7-9--7---------------------|
   * * *  * * * *  *

Chorus Both x2
e---------------------------|
b----12---10----9---7-5-----|
g----11---9-----8---6-4-----|
d--7-9--9-7--11-6-9-4-2-----|
a--7----9----11---9---------|
E--5----7----9----7---------|

Verse 2 Lead x2                  Dont play this 2nd time
e------------------------   -----------------------|
b-------------4h5p4-2-02-   --5---5---7---7--------|
g--6-666666--------------   ---666-666-888-88------|
d--6-666666--------------X2 -----------------------|
a--4 444444--------------   -----------------------|
E------------------------   -----------------------|
     ******
2nd time ending
e---------|
b-2~--5~--|
g---------|
d---------|
a---------|
E---------|
Verse 2 Rhythm x2
e------------------   ---------|
b------------------   ---------|
g--6-6666666666666-   ---------|
d--6-6666666666666-x2 ---7--9--|
a--4-4444444444444-   ---7--9--|
E------------------   ---5~-7~-|
     *************

repeat pre-chorus and chorus

Bridge Lead, you may have to listen a little
e------------------------   ---------|
b------------------------   ---------|
g-----------1------------   ---------|
d----------2---4~--------x2 ---------|
a-2-4~-2-4~--------2-0~--   --2-0~---|
E------------------------   ---------|

Bridge Rhythm, Acoustic
e---0-0---|
b---0-0---|
g---6-4---|
d---6-4-7-|
a---4-2-7-|
E-------5-|
Synthesizer part, Rhythm
e--16----16----16----16~-   e--16----16----16----16~-|
b----17----17----17------   b----17----17----17------|
g------16----16----16----   g------14----14----14----|
d------------------------x2 d------------------------|
a------------------------   a------------------------|
E------------------------   E------------------------|

e--12----12----12----12~--12~-|
b----12----12----12-----12----|
g------13----13----13---------|
d-----------------------------|
a-----------------------------|
E-----------------------------|

repeat chorus a few times

Outro Lead
e---------------------------------|
b--12-14--10-12-9-5-7-9-10-9------|
g--11-13--9--11-8-4-6-8-9--8~-----|
d--9--11--7--9--6-2-4-6-7--6~-----|
a---------------------------------|
E---------------------------------|

Outro Rhythm
e------------|
b------------|
g------------|
d--7-9-11-7~-|
a--7-9-11-7~-|
E--5-7-9--5~-|


=============================================================================
                             Dead In The Water
=============================================================================

 Key:
*=Palm Mute
=Slide up
/=Slide down
H=Hammer
P=Pull Off
~=Let it ring

Riff 1 Guitar1&2

e|-------------------------------------------------------------|
B|-------------------------------------------------------------|
G|------10-10-10-10—-9-9-9-9—-7--------10-10-10-10—-9-9-9-9--7-|
D|0-0-0—-x—-x—-x—-x--x-x-x-x—-x—-0-0-0—-x—-x—-x—-x—-x-x-x-x--x-|
A|0-0-0—-8—-8—-8—-8—-7-7-7-7—-5—-0-0-0—-8—-8—-8—-8--7-7-7-7--5-|
D|0-0-0--------------------------0-0-0-------------------------|
  *

e|----------------------------------------------------------------|
B|----------------------------------------------------------------|
G|--------10-10-10-10—-9-9-9-9—-7---------10-10-10-10—-9-9-9-9-12-|
D|--0-3-3—-x—-x—-x—-x—-x-x-x-x—-x—-0-8-8---x—-x—-x—-x—-x-x-x-x--x-|
A|--0-3-3—-8—-8—-8—-8—-7-7-7-7—-5—-0-8-8---8—-8—-8—-8—-7-7-7-7-10-|
D|--0-3-3--------------------------0-8-8--------------------------|
    *                              *

Riff 2 Guitar 1

e|---------------------------------------------------------|
B|---------------------------------------------------------|
G|----------14—14-14-14—12-12-12-12-10---------14-14-14-14-|
D|10-12-12---x--x—-x—-x--x—-x—-x—-x—-x—-0-0-0---x—-x—-x—-x-|
A|10-12-12—-12—12—12-12—10-10-10-10—-8—-0-0-0—-12-12-12-12-|
D|10-12-12------------------------------0-0-0--------------|
                                        *

e|----------------------------------------------------------|
B|----------------------------------------------------------|
G|12-12-12-12--10--------14-14-14-14-12-12-12-12—-10--------|
D|-x—-x—-x—-x---x—-0-3-3—-x—-x—-x—-x—-x—-x—-x—-x---x—-0-8-8-|
A|10-10-10-10---8—-0-3-3-12-12-12-12-14-14-14-14---8—-0-8-8-|
D|-----------------0-3-3------------------------------0-8-8-|
                   *                                  *
e|--------------------------------|
B|--------------------------------|
G|14-14-14-14-12-12-12-12—-15-----|
D|-x—-x—-x—-x—-x—-x—-x—-x---x—-10-|
A|12-12-12-12-10-10-10-10—-13—-10-|
D|-----------------------------10-|


Riff 2 Guitar 2


e|-------------------------------------------------------------|
B|-------------------------------------------------------------|
G|------10-10-10-10—-9-9-9-9—-7--------10-10-10-10—-9-9-9-9--7-|
D|0-0-0—-x—-x—-x—-x--x-x-x-x—-x—-0-0-0—-x—-x—-x—-x—-x-x-x-x--x-|
A|0-0-0—-8—-8—-8—-8—-7-7-7-7—-5—-0-0-0—-8—-8—-8—-8--7-7-7-7--5-|
D|0-0-0--------------------------0-0-0-------------------------|
  *

e|----------------------------------------------------------------|
B|----------------------------------------------------------------|
G|--------10-10-10-10—-9-9-9-9—-7---------10-10-10-10—-9-9-9-9-12-|
D|--0-3-3—-x—-x—-x—-x—-x-x-x-x—-x—-0-8-8---x—-x—-x—-x—-x-x-x-x--x-|
A|--0-3-3—-8—-8—-8—-8—-7-7-7-7—-5—-0-8-8---8—-8—-8—-8—-7-7-7-7-10-|
D|--0-3-3--------------------------0-8-8--------------------------|
    *                              *

Riff 3 Guitar1


e|-----------------------------------|
B|-----------------------------------|
G|-----------------------------------|
D|0-0-0—-0-0-0—-0-0-0--0-0-0---------|
A|0-0-0—-0-0-0—-0-0-0--0-0-0---------|
D|0-0-0—-0-0-0—-0-0-0—-0-0-0--15-----|
  * * *  * * *  * * *  * * *


Riff 3 Guitar2


e|--1-------1-------1-------1---|
B|1---3---1---3---1---3---1---3-|
G|------------------------------|
D|------------------------------|
A|------------------------------|
D|------------------------------|

Riff 4 Guitar1


e|---------------------------------------|
B|---------------------------------------|
G|---------------------------------------|
D|0-------10-------8-------5------7------|  X2
A|0-(X16)-10-(X16)-8-(X16)-5-(X8)-7-(X4)-|
D|0-------10-------8-------5------7------|
  *        *       *       *      *


Riff 4 Guitar2


e|--1-------1-------------|
B|1---3---1---3-----------|
G|------------------------|  X8
D|------------------------|
A|------------------------|
D|------------------------|

Then guitar2 plays

e|-5-5---8-8----5-5---8-8----5-5---8-8----5-5---8-8-------|
B|6-6-6-6-6-6—-6-6-6-6-6-6—-6-6-6-6-6-6--6-6-6—6-6--------|
G|--------------------------------------------------------|
D|--------------------------------------------------00-00-|
A|--------------------------------------------------00-00-|
D|--------------------------------------------------00-00-|
                                                    ** **

Riff 5 Guitar1

e|--------------------------------------------------------|
B|--------------------------------------------------------|
G|--------------------------------------------------------|
D|0-0-0-0-0-0-0-0-3-3-3-3-3-3-3-3-8-8-8-8-8-8-8-8-5-5-5-5-|
A|0-0-0-0-0-0-0-0-3-3-3-3-3-3-3-3-8-8-8-8-8-8-8-8—5-5-5-5-|
D|0-0-0-0-0-0-0-0-3-3-3-3-3-3-3-3-8-8-8-8-8-8-8-8-5-5-5-5-|


e|--------------------------------------------------------|
B|--------------------------------------------------------|
G|--------------------------------------------------------|
D|7-7-7-7-0-0-0-0-0-0-0-0-3-3-3-3-3-3-3-3-8-8-8-8-8-8-8-8-|
A|7-7-7-7-0-0-0-0-0-0-0-0-3-3-3-3-3-3-3-3-8-8-8-8-8-8-8-8-|
D|7-7-7-7-0-0-0-0-0-0-0-0-3-3-3-3-3-3-3-3-8-8-8-8-8-8-8-8-|

e|---------------------|
B|---------------------|
G|---------------------|
D|5—-5—-5—-5—-5--10-10-|
A|5—-5—-5—-5--5—-10-10-|
D|5—-5—-5—-5—-5—-10-10-|


Riff 5 Guitar2


e|--------------------------------------------------------|
B|--------------------------------------------------------|
G|10-10—-9--7—-5—/7—-10-10—-9--7—-5—-10-10—-9--7—-5—-7-7--|
D|-x—-x—-x--x—-x—-x---x—-x—-x--x—-x---x—-x—-x--x—-x—-x-x--|
A|-8—-8—-7--5--3—/5---8—-8—-7--5—-3---8—-8—-7--5—-3—-5-5--|
D|--------------------------------------------------------|

e|---------------|
B|---------------|
G|10-10-—9—-7—-5-|   X2
D|-x—-x—-x—-x—-x-|
A|-8—-8—-7—-5—-3-|
D|---------------|


Riff 6 Guitar1


e|----------------------|
B|----------------------|
G|----------------------|
D|0-0-0—-0-0-0—---------|
A|0-0-0—-0-0-0—---------|
D|0-0-0—-0-0-0—--15-----|
  * * *  * * *


Riff 6 Guitar2


e|--1-------1---------|
B|1---3---1---3-------|
G|--------------------|
D|--------------------|
A|--------------------|
D|--------------------|


Riff 7 Guitar1


e|---------------------------------------|
B|---------------------------------------|
G|---------------------------------------|
D|0-------10-------8-------5------7------|  X2
A|0-(X16)-10-(X16)-8-(X16)-5-(X8)-7-(X4)-|
D|0-------10-------8-------5------7------|
  *        *       *       *      *


Riff 8 Guitar2


e|--1-------1-------------|
B|1---3---1---3-----------|
G|------------------------|  X8
D|------------------------|
A|------------------------|
D|------------------------|


Then guitar 2 plays

e|-5-5---8-8----5-5---8-8----5-5---8-8----5-5---8-8-------|
B|6-6-6-6-6-6—-6-6-6-6-6-6—-6-6-6-6-6-6--6-6-6—6-6--------|
G|--------------------------------------------------------|
D|--------------------------------------------------00-00-|
A|--------------------------------------------------00-00-|
D|--------------------------------------------------00-00-|
                                                    ** **

Riff 9 Guitar1

e|--------------------------------------------------------|
B|--------------------------------------------------------|
G|--------------------------------------------------------|
D|0-0-0-0-0-0-0-0-3-3-3-3-3-3-3-3-8-8-8-8-8-8-8-8-5-5-5-5-|
A|0-0-0-0-0-0-0-0-3-3-3-3-3-3-3-3-8-8-8-8-8-8-8-8—5-5-5-5-|
D|0-0-0-0-0-0-0-0-3-3-3-3-3-3-3-3-8-8-8-8-8-8-8-8-5-5-5-5-|

e|--------------------------------------------------------|
B|--------------------------------------------------------|
G|--------------------------------------------------------|
D|7-7-7-7-0-0-0-0-0-0-0-0-3-3-3-3-3-3-3-3-8-8-8-8-8-8-8-8-|
A|7-7-7-7-0-0-0-0-0-0-0-0-3-3-3-3-3-3-3-3-8-8-8-8-8-8-8-8-|
D|7-7-7-7-0-0-0-0-0-0-0-0-3-3-3-3-3-3-3-3-8-8-8-8-8-8-8-8-|


e|---------------------|
B|---------------------|
G|---------------------|
D|5—-5—-5—-5—-5--10-10-|
A|5—-5—-5—-5--5—-10-10-|
D|5—-5—-5—-5—-5—-10-10-|


Riff 9 Guitar2


e|--------------------------------------------------------|
B|--------------------------------------------------------|
G|10-10—-9--7—-5—/7—-10-10—-9--7—-5—-10-10—-9--7—-5—-7-7--|
D|-x—-x—-x--x—-x—-x---x—-x—-x--x—-x---x—-x—-x--x—-x—-x-x--|
A|-8—-8—-7--5--3—/5---8—-8—-7--5—-3---8—-8—-7--5—-3—-5-5--|
D|--------------------------------------------------------|

e|---------------|
B|---------------|
G|10-10-—9—-7—-5-|
D|-x—-x—-x—-x—-x-|   X2
A|-8—-8—-7—-5—-3-|
D|---------------|

Riff 10 Guitar1
            X2
e|------------|---------------|
B|------------|---------------|
G|------------|---------------|
D|0-0-0-0-0-0-|---------------|
A|0-0-0-0-0-0-|---------------|
D|0-0-0-0-0-0—|-517/----------|
    * *   * *


Riff 11 Guitar2


e|-------------------------------------|
B|-2-3—5H6-5---2-3—8H10-8----2-3-5H6-5-|
G|0-----------0------------0-----------|
D|-------------------------------------|
A|-------------------------------------|
D|-------------------------------------|

Riff 12 Guitar1


e|--------------------------------------------------------------|
B|--------------------------------------------------------------|
G|--------------------------------------------------------------|
D|0-0-0-0-0-0-0-0-0-0-0—-3-3-3-3-3-3-3-3-3-3-3—-5-5-5-5-5-5-5-5-|
A|0-0-0-0-0-0-0-0-0-0-0—-3-3-3-3-3-3-3-3-3-3-3—-5-5-5-5-5-5-5-5-|
D|0—0-0-0-0-0-0-0-0-0-0—-3-3-3-3-3-3-3-3-3-3-3—-5-5-5-5-5-5-5-5-|
    * * * * * * * * * *    * * * * * * * * * *    * * * * * * *

e|--------------------------------------|
B|--------------------------------------|
G|--------------------------------------|
D|5-5-5—-8-8-8-8-8-8—-10-10-10-10-10-10-|
A|5-5-5—-8-8-8-8-8-8—-10-10-10-10-10-10-|
D|5-5-5—-8-8-8-8-8-8-—10-10-10-10-10-10-|
  * * *    * * * * *      *  *  *  *  *


e|--------------------------------------------------------------|
B|--------------------------------------------------------------|
G|--------------------------------------------------------------|
D|0-0-0-0-0-0-0-0-0-0-0—-3-3-3-3-3-3-3-3-3-3-3—-5-5-5-5-5-5-5-5-|
A|0-0-0-0-0-0-0-0-0-0-0—-3-3-3-3-3-3-3-3-3-3-3—-5-5-5-5-5-5-5-5-|
D|0—0-0-0-0-0-0-0-0-0-0—-3-3-3-3-3-3-3-3-3-3-3—-5-5-5-5-5-5-5-5-|
    * * * * * * * * * *    * * * * * * * * * *    * * * * * * *

e|--------------------------------------|
B|--------------------------------------|
G|--------------------------------------|
D|5-5-5—-8-8-8-8-8-8—-10-10-10-10-10-10-|
A|5-5-5—-8-8-8-8-8-8—-10-10-10-10-10-10-|
D|5-5-5—-8-8-8-8-8-8-—10-10-10-10-10-10-|
  * * *


Breakdown Guitar2
                                                            X2
e|-------8----------10---------8---------13---------8---10---13-|
B|5-6-5---5—-5-6-5----5—-5-6-5—-5—-5-6-5---5—-5-6-5—-5----5-----|
G|--------------------------------------------------------------|
D|--------------------------------------------------------------|
A|--------------------------------------------------------------|
D|--------------------------------------------------------------|



e|-----------------------|
B|6-6—8-8—10—-13---------|
G|-----------------------|
D|------------------0~---|
A|------------------0~---|
D|------------------0~---|


Riff 13 Guitar1&2

e|-5-5---8-8----5-5---8-8----5-5---8-8----5-5---8-8-------|
B|6-6-6-6-6-6—-6-6-6-6-6-6—-6-6-6-6-6-6--6-6-6—6-6--------|
G|--------------------------------------------------------|
D|--------------------------------------------------00-00-|
A|--------------------------------------------------00-00-|
D|--------------------------------------------------00-00-|
                                                    ** **

Riff 14 Guitar1

e|--------------------------------------------------------|
B|--------------------------------------------------------|
G|--------------------------------------------------------|
D|0-0-0-0-0-0-0-0-3-3-3-3-3-3-3-3-8-8-8-8-8-8-8-8-5-5-5-5-|
A|0-0-0-0-0-0-0-0-3-3-3-3-3-3-3-3-8-8-8-8-8-8-8-8—5-5-5-5-|
D|0-0-0-0-0-0-0-0-3-3-3-3-3-3-3-3-8-8-8-8-8-8-8-8-5-5-5-5-|

e|--------------------------------------------------------|
B|--------------------------------------------------------|
G|--------------------------------------------------------|
D|7-7-7-7-0-0-0-0-0-0-0-0-3-3-3-3-3-3-3-3-8-8-8-8-8-8-8-8-|
A|7-7-7-7-0-0-0-0-0-0-0-0-3-3-3-3-3-3-3-3-8-8-8-8-8-8-8-8-|
D|7-7-7-7-0-0-0-0-0-0-0-0-3-3-3-3-3-3-3-3-8-8-8-8-8-8-8-8-|

e|---------------------|
B|---------------------|
G|---------------------|
D|5—-5—-5—-5—-5--10-10-|
A|5—-5—-5—-5--5—-10-10-|
D|5—-5—-5—-5—-5—-10-10-|




Riff 14 Guitar2

e|--------------------------------------------------------|
B|--------------------------------------------------------|
G|10-10—-9--7—-5—/7—-10-10—-9--7—-5—-10-10—-9--7—-5—-7-7--|
D|-x—-x—-x--x—-x—-x---x—-x—-x--x—-x---x—-x—-x--x—-x—-x-x--|
A|-8—-8—-7--5--3—/5---8—-8—-7--5—-3---8—-8—-7--5—-3—-5-5--|
D|--------------------------------------------------------|

e|---------------|
B|---------------|
G|10-10-—9—-7—-5-|
D|-x—-x—-x—-x—-x-|   X2
A|-8—-8—-7—-5—-3-|
D|---------------|


Riff 15 Guitar1


e|--------------------------------------|
B|--------------------------------------|
G|--------------------------------------|
D|0-0-0-0-0-0-0-0-0-0-0-3/5—-7/8-7—-0-0-|
A|0-0-0-0-0-0-0-0-0-0-0-3/5-—7/8-7—-0-0-|
D|0-0-0-0-0-0-0-0-0-0-0-3/5—-7/8-7—-0-0-|
    * * * * * * * * * *

=============================================================================
                             I Am On Your Side
=============================================================================

H = Hammer On
P = Pull Off
/\ = Slide
P.M. = Palm Mute
Intro x2

Guitar 1
e|---------------------------------------------------------------------------|
B|---------------------------------------------------------------------------|
G|--666--999--444444444444--2222-2222-2222-2222------------------------------|
D|--666--999--444444444444--2222-2222-2222-2222------------------------------|
A|--444--777--222222222222--0000-0000-0000-0000------------------------------|
E|---------------------------------------------------------------------------|
P.M.                        ...  ...  ...  ...

Guitar 2
e|---------------------------------------------------------------------------|
B|------------------------------12-----12-----12-----12----------------------|
G|--888--999--88888888-986--9h11---9h11---9h11---9h11------------------------|
D|---------------------------------------------------------------------------|
A|---------------------------------------------------------------------------|
E|---------------------------------------------------------------------------|

Verse x2

Guitar 1
e|--0----0----0----|
B|--0----2----2----|
G|--2----3----2----|
D|--2----0----2----|
A|--2---------0----|
E|--0--------------|

Guitar 2
e|--------------------------------------------------------------------------------|
B|--------------------------------------------------------------------------------|
G|--9-8-6-4-2h4-9-8--------7-9-6\4--------13-11-9-8-8/9--------2-4-6-9-11-9-11-9--|
D|--------------------------------------------------------------------------------|
A|--------------------------------------------------------------------------------|
E|--------------------------------------------------------------------------------|

Pre-Chorus

Guitar 1  All Palm Muted
x4
e|---------------------------------------------------------------------------|
B|---------------------------------------------------------------------------|
G|---------------------------------------------------------------------------|
D|--222-222--555-222-22------------------------------------------------------|
A|--222-222--555-222-22------------------------------------------------------|
E|--000-000--333-000-00------------------------------------------------------|

Guitar 2 Not sure how many time the first 9 is picked.
x3
e|----------------|
B|----------------|
G|--9----9h11p9---|
D|----------------|
A|----------------|
E|----------------|
x1
e|----------------|
B|------12--------|
G|--9h11--11p9----|
D|----------------|
A|----------------|
E|----------------|

Chorus 

Guitar 1  
x2
e|---------------------|
B|---------------------|
G|--6-------4------2---|
D|--6-------4------2---|
A|--4x16----2x3----0x8-|
E|---------------------|
x1
e|-------------|
B|-------------|
G|--4---6----9-|
D|--4---6----9-|
A|--2---4----7-|
E|-------------|

Guitar 2

e|--------------------9-----|
B|------12-------------12---|
G|--9h11--11p9----9h11---11-|
D|--------------------------|
A|--------------------------|
E|--------------------------|


e|-------------------12-20-|
B|------12--------12-------|
G|--9h11--11p9-------------|
D|-------------------------|
A|-------------------------|
E|-------------------------|

Repeat Intro, Verse, Pre-Chorus, Chorus

Verse 3
x2
e|--20\4\2-2/4\2\0-|
B|-----------------|
G|-----------------|
D|-----------------|
A|-----------------|
E|-----------------|

Repeat Pre-Chorus, Chorus 3 times, Intro

Outro

Guitar 1 Whole Thing x2
              x2
e|----1---3-1-|----0---0---0-1-0--|
B|---2-2-2----|---2-2-2-2-2-2-2-2-|
G|--2---2-----|--1---1---0--------|
D|------------|-------------------|
A|------------|-------------------|
E|------------|-------------------|

Guitar 2
		   x2             x2
e|--10--10--12--13-|--9--9--12--13|--9-|
B|-----------------|--------------|----|
G|-----------------|--------------|----|
D|-----------------|--------------|----|
A|-----------------|--------------|----|
E|--------------------------------|----|

=============================================================================
                         Breathing In Sequence
=============================================================================

INTRO

Lead guitar:
e---------------------------------------------------------------------|
b-----77----99----1111------11--11--6---------------------------------|
g---88--1010--1111----13810-------------------------------------------|
d---------------------------------------------------------------------|
a---------------------------------------------------------------------|
d---------------------------------------------------------------------|

Background guitar
e---------------------------------------------------------------------|
b---------------------------------------------------------------------|
g---------------------------------------------------------------------|
d-1111-8888-9999-11111111----1xx-8xx-9~-------------------------------|
a-1111-8888-9999-11111111----1xx-8xx-9~-------------------------------|
d-1111-8888-9999-11111111----1xx-8xx-9~-------------------------------|


VERSE:

BG guitar
e-------------------------------------------------------------------------|
b-------------------------------------------------------------------------|
g-44-44x6-44-44x6--------4-------4--44-44x6-44-44x6--------4-------4--4~--|
d-44-44x6-44-44x6--11-11x4-11-11x4--44-44x6-44-44x6--11-11x4-11-11x4--4~--|
a-22-22x4-22-22x4--11-11x2-11-11x2--22-22x4-22-22x4--11-11x2-11-11x2--2~--|
d------------------11-11x--11-11x--------------------11-11x--11-11x-------|

Lead Guitar
e----------------------------------------------------------------------------------------|
b-----------------------------------7777777/6-h7-7777777/6-h11(x7)/14-h11-(x7)/14-7~-----|
g----------------------------------------------------------------------------------------|
d----------------------------------------------------------------------------------------|
a----------------------------------------------------------------------------------------|
d----------------------------------------------------------------------------------------|


PRE CHOURS

Lead guitar:
e----------------66666666---------------------------------------------|x2
b777777777777777----------66666666------------------------------------|
g---------------------------------------------------------------------|
d---------------------------------------------------------------------|
a---------------------------------------------------------------------|
d---------------------------------------------------------------------|

Background Guitar:
e---------------------------------------------------------------------|
b---------------------------------------------------------------------|
g-66-----6--4-6------6--4-6-------------------------------------------|
d-66-1---6--4-6--1---6--4-6-------------------------------------------|
a-44-1---4--2-4--1---4--2-4-------------------------------------------|
d----1-----------1----------------------------------------------------|

Chours:

Lead guitar:
e---------------------------9----9----9----9--------------------------|X2
b----777777777777-9-7----7-----7----7----7----7-----------------------|
g---------------------10-----10---10---10---10------------------------|
d---------------------------------------------------------------------|
a---------------------------------------------------------------------|
d---------------------------------------------------------------------|

BG guitar:
e---------------------------------------------------------------------|x2
b---------------------------------------------------------------------|
g--6-------------666666666666-444444444444-666666666666---------------|
d--6-11111111111-666666666666-444444444444-666666666666---------------|
a--4-11111111111-444444444444-222222222222-444444444444---------------|
d----11111111111------------------------------------------------------|

VERSE 2

Lead
comes in 2nd time:
(hint: its 11 not 1)
e-----------------9999------------------------------------------------|
b-777777-11111111------777777-9999-11111111----777-111111-------------|
g-------------------------------------------888-----------------------|
d---------------------------------------------------------------------|
a---------------------------------------------------------------------|
d---------------------------------------------------------------------|
  ......               ......

Bg
e---------------------------------------------------------------------|
b---------------------------------------------------------------------|
g-44444-44444/666-X2------------666-X2--------------------------------|
d-44444-44444/666---11111-11111-666-----------------------------------|
a-22222-22222/444---11111-11111-444-----------------------------------|
d-------------------11111-11111---------------------------------------|
  ....  ..... ..    ....  ..... ..

//REPEAT PRE CHOURS\
//REPEAT CHOURS.\

AFTER 2NDCHOURS COMES THIS :

Bg
e-------------------------------------------------------------------------|
b-------------------------------------------------------------------------|
g---------------------------------44------44-----666------66--------------|
d--11------11-----111------11-----44------44-----666------66--------------|
a--11------11-----111------11-----22------22-----444------44--------------|
d--11------11-----111------11---------------------------------------------|

Lead
e-------------------------------9-------------------------------9---------|
b----11-9----119----11-9----119------11-9----119----11-9----119-----------|
g---------10-----10------10---------------10-----10------10---------------|
d-------------------------------------------------------------------------|
a-------------------------------------------------------------------------|
d-------------------------------------------------------------------------|

SOLO:

1ST GUITAR SOLOS
e------------------------------------------13-14-14131413--1413--161413-181614(x3)-21--|
b----2-4-6-7-7676-2----2-4-6-7-9-11---11-14--------------14----14----------------------|
g--3-----------------3--------------11-------------------------------------------------|
d--------------------------------------------------------------------------------------|
a--------------------------------------------------------------------------------------|
d--------------------------------------------------------------------------------------|

2ND GUITAR
e-------------------------------9-------------------------------9---------|
b----11-9----119----11-9----119------11-9----119----11-9----119-----------|
g---------10-----10------10---------------10-----10------10---------------|
d-------------------------------------------------------------------------|
a-------------------------------------------------------------------------|
d-------------------------------------------------------------------------|

BACKGROUND GUITAR
e-------------------------------------------------------------------------|
b-------------------------------------------------------------------------|
g---------------------------------44------44-----666------66--------------|
d--11------11-----111------11-----44------44-----666------66--------------|
a--11------11-----111------11-----22------22-----444------44--------------|
d--11------11-----111------11---------------------------------------------|

REPEAT CHORUS

ENDING

bg guitar
e--------------------------------------------------------------------------|
b--------------------------------------------------------------------------|
g-----3---4---6-X2-----3333-444-666----------------------------------------|
d-1---3---4---6---1111-1111-444-666--1XX-8XXX-9~---------------------------|
a-1---1---2---4---1111-1111-222-444--1XX-8XXX-9~---------------------------|
d-1---------------1111---------------1XX-8XXX-9~---------------------------|

1ST GUITAR
e---------------------------------------------------------------|
b--------------------444777666677991113~--9~-11~-6~-------------|
g--11-11-10-----(x6)--------------------------------------------|
d----------11-8-------------------------------------------------|
a---------------------------------------------------------------|
d---------------------------------------------------------------|

2ND GUITAR
After 3rd time:
e---------------------------------------------------------------|
b--11-11-9------(x3)------------77991113~--9~-11~-6~------------|
g----------10---------------------------------------------------|
d-------------11------------------------------------------------|
a---------------------------------------------------------------|
d---------------------------------------------------------------|


=============================================================================
                               Light Sleeper
=============================================================================

Key:
*=Palm Mute
\=Slide up
/=Slide down
H=Hammer
P=Pull Off
~=Let it ring


Riff 1 Guitar1

e|-------------------------------------|
B|5-4----------------------------------|
G|----6-4—-1—-11/13-11—-6—-1-----------|
D|----------------------------4-4—-2-1-|
A|-------------------------------------|
E|-------------------------------------|


Riff 1 Guitar2

e|-----------------------|
B|-----------------------|
G|---9-----9-----9-----9-|
D|-----------------------|   X3
A|--7-----7-----7-----7--|
E|9-----7-----5-----7----|


Riff 2 Guitar1&2

E|-----------------------------------------|
B|-----------------------------------------|
G|6-6-6-6-6-6—-2-2-2-2-2-2—-44-44-22-2-4---|
D|6-6-6-6-6-6—-2-2-2-2-2-2—-44-44-22-2-4---|  X3
A|4-4-4-4-4-4--0-0-0-0-0-0—-22-22-00-0-2---|
E|-----------------------------------------|
    * * * *      * * * *

Riff 3 Guitar1

e|---------------------------|
B|---------------------------|
G|6-6-6-6-6-6-6-6—-4-4-4-4—6-|
D|---------------------------|
A|---------------------------|
E|---------------------------|
* * * * * * * *  * * * * *

Riff 4 Guitar1

e|--------------------------------------------------------------|
B|--------------------------------------------------------------|
G|6-6-6-6--9-9-9-9—-4-4-4-4-4-4-4-4--6-6-6-6-—9-9-9-9—--4-4-4-4-|
D|6-6-6-6--9-9-9-9—-4-4-4-4-4-4-4-4—-6-6-6-6—-9-9-9-9—--4-4-4-4-|
A|4-4-4-4--7-7-7-7—-2-2-2-2-2-2-2-2—-4-4-4-4—-7-7-7-7---2-2-2-2-|
E|--------------------------------------------------------------|

e|-----------|
B|-----------|
G|4-4-4-4—-2-|
D|4-4-4-4—-2-|
A|2-2-2-2—-0-|
E|-----------|


Riff 4 Guitar2

e|-------------------------------------------------------------|
B|-------------------------------------------------------------|
G|6-6-6-6—-9-9-9-9—-4-4-4-4-4-4-4-4—-6-6-6-6—-9-9-9-9--4-4-4-4-|
D|x-x-x-x—-x-x-x-x—-x-x-x-x-x-x-x-x—-x-x-x-x—-x-x-x-x--x-x-x-x-|
A|4-4-4-4-—7-7-7-7—-2-2-2-2-2-2-2-2—-4-4-4-4—-7-7-7-7—-7-7-7-7-|
E|-------------------------------------------------------------|


e|-------------|
B|-------------|
G|4-4-4-4--2---|
D|x-x-x-x—-2---|
A|2-2-2-2—-0---|
E|-------------|



Riff 5 Guitar1

e|----------------------------------|
B|----------------------------------|
G|66-6666—-22-2222--44-4444-22-2222-|
D|66-6666—-22-2222—-44-4444-22-2222-|  X3
A|44-4444—-00-0000—-22-2222-00-0000-|
E|----------------------------------|
  ** ****  ** ****  ** **** ** ****


Riff 5 Guitar2

e|---------------------|
B|---------------------|
G|5—-14—-11—-5—-14—-11-|
D|5—--x-—-x—-5—--x—--x-|
A|3—-12---9--3—-12—--9-|
E|---------------------|


Riff 6 Guitar1
                                                           X2
e|------------------------------------------------------------|
B|------------------------------------------------------------|
G|6-6-6-6-6-6-6-6—-2-2-2-2-2-2-2-2--4-4-4-4-4-4-4-4-4-4-4-4-4-|
D|6-6-6-6-6-6-6-6—-2-2-2-2-2-2-2-2—-4-4-4-4-4-4-4-4-4-4-4-4-4-|
A|4-4-4-4-4-4-4-4-—0-0-0-0-0-0-0-0—-2-2-2-2-2-2-2-2-2-2-2-2-2-|
E|------------------------------------------------------------|
  * * * * * * * *  * * * * * * * *  * * * * * * * * * * * * *


Riff 6 Guitar2

e|4-4-----4-4-----5-5-----5-5----4—4—-7—7--|
B|---5-5-----5-5-----5-5-----5-5—-5-5—-5—5-|
G|-----------------------------------------|
D|-----------------------------------------|  X2
A|-----------------------------------------|
E|-----------------------------------------|


Riff 7 Guitar2

e|---------------------------|
B|-------------------------8-|
G|6-6-6-6-6-6-6-6-6-6-6-6—-x-|
D|x-x-x-x-x-x-x-x-x-x-x-x—-5-|
A|4-4-4-4-4-4-4-4-4-4-4-4----|
E|---------------------------|


Riff 8 Guitar1

e|--------------------------------------------------------------|
B|--------------------------------------------------------------|
G|6-6-6-6--9-9-9-9—-4-4-4-4-4-4-4-4--6-6-6-6-—9-9-9-9—--4-4-4-4-|
D|6-6-6-6--9-9-9-9—-4-4-4-4-4-4-4-4—-6-6-6-6—-9-9-9-9—--4-4-4-4-|
A|4-4-4-4--7-7-7-7—-2-2-2-2-2-2-2-2—-4-4-4-4—-7-7-7-7---2-2-2-2-|
E|--------------------------------------------------------------|

e|-----------------------------------------------------------|
B|-----------------------------------------------------------|
G|4-4-4-4—-6-—6—-9\11—-4-4-4-4-4-4-4-4—-6—-4-4-4-4-4-4-4-4--2|
D|4-4-4-4—-6—-x—-x\x---4-4-4-4-4-4-4-4—-6—-4-4-4-4-4-4-4-4--2|
A|2-2-2-2—-4—-4—-7\9---2-2-2-2-2-2-2-2—-4—-2-2-2-2-2-2-2-2--0|
E|-----------------------------------------------------------|


Riff 8 Guitar2

e|----------------------------------|
B|----------------------------------|
G|13-13-13-13-13-13-13\12-----14/16-|
D|-x-—x—-x—-x—-x—-x—-x\-x------x/-x-|
A|11-11-11-11-11-11-11\14-----12/14-|
E|----------------------------------|


Riff 9 Guitar1

e|--------------------|
B|--------------------|
G|4—-6~-2~--4—-6~--66-|
D|4—-6~-2~--4—-6~--66-|
A|2—-4~-0~--2—-4~--44-|
E|--------------------|
                   **

Riff 9 Guitar2

e|4-2---2-0-------|
B|---2------------|
G|----4-----4—-66-|
D|-------------66-|
A|-------------44-|
E|----------------|
               **


Riff 10 Guitar1

e|---------------------------------------------------------------|
B|---------------------------------------------------------------|
G|6-6-6-6-6-6-6-6—-9-9-9-9-9-9-9-9—-6-6-6-6-6-6-6-6-—9-9-9-9-9-9-|
D|6-6-6-6-6-6-6-6—-9-9-9-9-9-9-9-9—-6-6-6-6-6-6-6-6—-9-9-9-9-9-9-|
A|4-4-4-4-4-4-4-4—-7-7-7-7-7-7-7-7—-4-4-4-4-4-4-4-4—-7-7-7-7-7-7-|
E|---------------------------------------------------------------|


e|-------|
B|-------|
G|9-9-9--|
D|9-9-9--|
A|7-7-7--|
E|-------|


Riff 10 Guitar2


e|----------------------|
B|----------------------|
G|13-11--6--4—-11--9—-4-|
D|-x—-x--x--x---x—-x—-x-|  X3
A|11—-9--4--2---9—-7-—2-|
E|----------------------|


Riff 11 Guitar1

e|---------------------------------|
B|---------------------------------|
G|66666666666666—-4444444444444-—4-|
D|66666666666666--4444444444444—-4-|
A|44444444444444--2222222222222—-2-|
E|---------------------------------|


Riff 11 Guitar2

e|----------------------------------------|
B|----------------------------------------|
G|----------------------------------------|
D|999999999999999-—8888888888888—-4444-—4-|
A|xxxxxxxxxxxxxxx—-xxxxxxxxxxxxx-—xxxx—-4-|
E|777777777777777—-6666666666666—-2222—-2-|

Riff 12 Guitar1


e|--------------------------------------------------------------|
B|--------------------------------------------------------------|
G|6-6-6-6--9-9-9-9—-4-4-4-4-4-4-4-4--6-6-6-6-—9-9-9-9—--4-4-4-4-|
D|6-6-6-6--9-9-9-9—-4-4-4-4-4-4-4-4—-6-6-6-6—-9-9-9-9—--4-4-4-4-|
A|4-4-4-4--7-7-7-7—-2-2-2-2-2-2-2-2—-4-4-4-4—-7-7-7-7---2-2-2-2-|
E|--------------------------------------------------------------|


e|------------|
B|------------|
G|4-4-4-4—-6--|
D|4-4-4-4—-6--|
A|2-2-2-2—-4--|
E|------------|


Riff 12 Guitar2

e|-------------------------------------------------------------|
B|-------------------------------------------------------------|
G|6-6-6-6—-9-9-9-9—-4-4-4-4-4-4-4-4—-6-6-6-6—-9-9-9-9--4-4-4-4-|
D|x-x-x-x—-x-x-x-x—-x-x-x-x-x-x-x-x—-x-x-x-x—-x-x-x-x--x-x-x-x-|
A|4-4-4-4-—7-7-7-7—-2-2-2-2-2-2-2-2—-4-4-4-4—-7-7-7-7—-7-7-7-7-|
E|-------------------------------------------------------------|

e|-------------|
B|-------------|
G|4-4-4-4--6---|
D|x-x-x-x—-6---|
A|2-2-2-2—-4---|
E|-------------|

Riff 13 Guitar2

e|--------------------------|
B|--------------------------|
G|---9-----9-----9-----9—---|
D|--------------------------|  X2
A|--7-----7-----7-----7-----|
E|9-----7-----5-----7-------|

Riff 13 Guitar1
E|--|
B|--|
G|6-|
D|6-|
A|4-|
E|--|

=============================================================================
                        Cross Me Off Your List
=============================================================================

These Are MY Chords to play like made up chords but sorry lol
*******************************************************************
    A               B                    C                 D

|---0--------   |---0------      |-------0------    |------0------|
|---0--------   |---0------      |-------0------    |------0------|
|---4--------   |---4------      |-------4------    |------2------|
|---2--------   |---4------      |-------2------    |------2------|
|---4--------   |---2------      |-------0------    |------0------|
|------------   |----------      |--------------    |-------------|

********************************************************************
   [Beginning]
|---------------------------------|
|---------------------------------|
|--6------------------------------|   [Play 6 times]
|--6----2----4----7-7-------------|
|--4----2----4----7-7-------------|
|-------0----2----5-5-------------|

A          B            C                   B
So Let Us, Concentrate, On All Those Things, You Love To Hate.

A              B                     C           B
It makes this, all worth a wait but, causes us to, seperate

A               B
And I dont know how I should feel

C                    B              C
these lights make it all seem real

****************************************************************************
   [Chorus]

 A)Can You See This...
 B)Can You Feel This...
|----------------------------------------------------|
|----------------------------------------------------|
|------9/7------9------------------------------------| Continue below Chorus
|-11---9/7---9--9~[Count to 3 while strumming]-------|
|-11---------9--7------------------------------------|
|--9---------7---------------------------------------|

 A)Or Wear It On Your Wrist...
 B)Cross Me Off Your List...
|----------------------------------------------------|
|----------------------------------------------------|
|------9/7-----11------------------------------------|
|-11---9/7---9--9~[Count to 3 while strumming]-------|
|-11---------9--7------------------------------------|
|--9---------7---------------------------------------|

 A)Its Everything You Wanted, The Mark You Always Missed
 B)Shes everything you wanted, the mark you always missed
|---------------------------------------------------------------------------|
|---------------------------------------------------------------------------| Continue
|---------------------------------------------------------------- up start--|
|----7----------------------------------7/2-----4---------------------------| -ing on B)
|----7--[strum about 8 times i think]---7/2-----4-Strum about 7x------------|
|----5----------------------------------5/0-----2---------------------------|

                                                              [Chorus]
*************************************************************************

A.....

A              B                 C                 B
With dry eyes, and steady hands, I tried so hard, to understand

A                B          C                           B
Why you left us, all alone, Three broken hearts with a, broken home

A                 B                 C                     B              C
And I Dont know, how I should feel, these lights make it, all seem real

 [Go back to chorus]...

Solo

|-------------------7-------------------------5-------|
|----5---7---9---7-----7------5---7---9---7-------7---|
|-----------------------------------------------------|
|-----------------------------------------------------|
|-----------------------------------------------------|
|-----------------------------------------------------|

|-------------------7-------------------------7~------|
|----5---7---9---7-----7------5---7---9---7-----------|
|-----------------------------------------------------|
|-----------------------------------------------------|
|-----------------------------------------------------|
|-----------------------------------------------------|

                 [CROSS ME OFF.. CROSS ME OFF YOU LIST!]

  [17x]  [12x]~  [17x]  [9x]  [12x]~
|---7------9------10-----12----15---------------------|
|-----------------------------------------------------|
|-----------------------------------------------------|
|-----------------------------------------------------|
|-----------------------------------------------------|
|-----------------------------------------------------|

A               D     A                       B
Can  you  feel  this  or  wear  it  on  your  wrist

A                            C B   A                       D
its  everything  you  wanted       the  mark  you  always  missed...


Pick Scrape

Go back to the chorus

|--------------|
|--------------|
|--------------|  way way at the ending
|-4--2--~------|
|-4--2--~------|
|-2--0--~------|

 ~ = Let it ring
 / = Slide

=============================================================================
                    Where Can I Stab Myself In The Ears
=============================================================================

() - Let Ring
 ~ - Vibrato
 . - Palm Mute
 * - Pinch Harmonic
 x - Fret Mute
 p - Pull Off
 h - Hammer On
 12\ - Slide Down From 12th Fret 
 T - 10th Fret 
 E - 11th Fret
 V - 12th Fret
 F - 14th Fret


Guitar 1 Clean - Intro - 0:00-0:17 
E|----------------------------------|
B|---(11)----(12)-------(11)----(11)|
G|----------------------------------|
D|(13)---(13)---------------(13)----| I think you repeat this 12x 
A|----------------------------------| I lose count. So if you listen to the 
D|----------------------------------| song maybe you can get it. Sorry

Guitar 2&3 Distortion - Intro - 0:05-0:16
E|--------------------------|-------------------------|
B|--------------------------|-------------------------|
G|---------(6)-44-----------|---------(6)-44----------|
D|(1)------(6)-44-----(6)---|(1)------(6)-44-----66---|
A|(1)------(4)-22-----(6)---|(1)------(4)-22-----66---|
D|(1)-----------------(6)---|(1)-----------------66---|
                                                 ..

Guitar 1 Distortion - Verse - 0:22-0:37
E|-------------------------|-------------------------------------------|
B|12-(11)------------------|-------------------------------------------|
G|-------------------------|4h6--66-66--6666--TTTT--EEEE-6666-TTTT-EEEE|
D|-------------------------|-------------------------------------------|
A|-------------------------|-------------------------------------------|
D|-------------------------|-------------------------------------------|

E|-----------------------------------|
B|-----------------------------------|
G|-E------T-----6----E--T-----6--EEEE|
D|-----------------------------------|
A|-----------------------------------|
D|-----------------------------------|

Guitar 2&3 Distortion - Verse - 0:17-0:37
E|---------------------------------------|
B|---------------------------------------|
G|--------------6666--44444444444--------|Play 3x and the fourth time 
D|111111111111--6666--44444444444--6666--|guitar 1 plays this and guitar 2
A|111111111111--4444--22222222222--6666--|plays this and guitar 3 plays this
D|111111111111---------------------6666--|(all seen below)
  ............  ....  ...........  ....

Guitar 1 Distortion - Fill 
E|-----------------------------------------------------|
B|-----------------------------------------------------|
G|-------------6666-444444444444---44--4---------------|
D|111111111111-6666-444444444444---44--4----66(1)------|
A|111111111111-4444-222222222222---22--2----66(1)------|
D|111111111111------------------------------66(1)------|
                                            ..

Guitar 2 Distortion - Fill
E|-----------------------------------------------------|
B|-----------------------------------------------------|
G|-------------6666-444444444444---44--4---------------|
D|111111111111-6666-444444444444---44--4----66(1)------|
A|111111111111-4444-222222222222---22--2----66(1)------|
D|111111111111------------------------------66(1)------|
                                            ..
Guitar 3 Distortion - Fill
E|-----------------------------------------------------|
B|-----------------------------------------------------|
G|-------------6666-444444444444---44--4---------------|
D|111111111111-6666-444444444444---44--4----66(1)------|
A|111111111111-4444-222222222222---22--2----66(1)------|
D|111111111111------------------------------66(1)------|
  ............ .... ............   ..  .    ..

Guitar 1 Distortion - Pre-Chorus - 0:39-0:44
E|-----------------------------------------------------|
B|-----------------------------------------------------|
G|--You don't strike this note, it's just continued----|
D|(1)--------------------------------------------------|
A|(1)This is continued from the ending note on the fill|
D|(1)--------------------------------------------------|

Guitar 2 Distortion - Pre-Chorus - 0:39-0:44
E|----------------------------------------------|
B|------------------------9999-TTTT-VVVV-FFFF---|
G|----------------------------------------------|
D|6666--8888--9999--VVVV--6666-8888-9999-EEEE---|
A|4444--6666--7777--TTTT------------------------|
D|----------------------------------------------|
  ....  ....  ....  ....

Guitar 3 Distortion - Pre-Chorus - 0:39-0:44
E|-------------------------------------------------|
B|-------------------------------------------------|
G|-------------------------------------------------|
D|6666--8888--9999--EEEE--6666--8888--9999--VVVV---|
A|4444--6666--7777--9999--4444--6666--7777--TTTT---|
D|-------------------------------------------------|

Guitar 1 Distortion – Chorus – 0:45-1:12
E|---------------------------------------------------------------------|
B|---------------------------------------------------------------------|
G|4444444444444444--66666666--4----6-----6666----8888----TTTT----EEEE--|
D|4444444444444444--66666666-x4---x6--x1-xxxx-x1-xxxx-x1-xxxx-x1-xxxx--|
A|2222222222222222--44444444-x2---x4--x1-4444-x1-6666-x1-8888-x1-9999--|
D|---------------------------x----x---x1------x1------x1------x1-------|

E|---------------------------------------------------------------------|
B|---------------------------------------------------------------------|
G|4444444444444444--66666666--4----6-----6666----8888----TTTT----EEEE--|
D|4444444444444444--66666666-x4---x6--x1-xxxx-x1-xxxx-x1-xxxx-x1-xxxx--|
A|2222222222222222--44444444-x2---x4--x1-4444-x1-6666-x1-8888-x1-9999--|
D|---------------------------x----x---x1------x1------x1------x1-------|

E|-----------------------------------|
B|-----------------------------------|
G|4-4-4-4-4-4-4-4--6-6-6-6---4---6---|
D|4-4-4-4-4-4-4-4--6-6-6-6---4---6---|
A|2-2-2-2-2-2-2-2--4-4-4-4---2---4---|
D|-----------------------------------|

Guitar 2&3 Distortion - Chorus - 0:45-1:12
e|--------------------------------------|--------------------------|
B|--------------------------------------|--------------------------|
G|4444444444444444-66666666--x4---x6----|------------------------x4|
D|4444444444444444-66666666--x4---x6----|x1----x1----x1----x1----x4|
A|2222222222222222-44444444--x2---x4----|x1----x1----x1----x1----x2|
D|--------------------------------------|x1----x1----x1----x1------|
Repeat

Guitar 1 Distortion - Verse - 1:13-1:35
E|-------------------------|            |---------------------------------|
B|-------------------------|            |---------------------------------|
G|-------------------------|            |---6-6p4-----6-66----6-6--4---6--|
D|-------------------------| <-Repeat-> |x1--------x1------x1-----x4--x6--|
A|-------------------------|            |x1--------x1------x1-----x2--x4--|
D|-------------------------|            |x1--------x1------x1-----x---x---|

Guitar 2&3 Distortion - Verse - 1:13-1:35
E|-------------------------|            |---------------------------------|
B|-------------------------|            |---------------------------------|
G|-------------------4---6-|            |-------------------------4---6---| 
D|x1----x1----x1----x4--x6-| <-Repeat-> |x1-------x1------x1-----x4--x6---|
A|x1----x1----x1----x2--x4-|            |x1-------x1------x1-----x2--x4---|
D|x1----x1----x1----x---x--|            |x1-------x1------x1-----x---x----|

Guitar 1 Distortion - Fill - 1:34-1:35
E|----------|
B|----------|
G|----------|
D|4--6---8--|
A|----------|
D|----------|

Guitar 2&3 Distortion - Fill - 1:34-1:35
E|----------|
B|----------|
G|----------|
D|----------|
A|5--7---9--|
D|----------|

Repeat Chorus - 1:35-2:03                                               (6)
                                                                        (6)
Guitar 2&3 Distortion - Verse - 2:04-2:14    2nd Ending - 2:15 Replaces (6)
E|-------------------------------|                 |--------|
B|-------------------------------|                 |--------|
G|-----------(6)--(4)------------|                 |--------|
D|(1)--------(6)--(4)------(6)---|<-Repeat         |66------|
A|(1)--------(4)--(2)------(6)---|                 |66------|
D|(1)----------------------(6)---|                 |66------|
                                                    ..

Guitar 1 Distortion - Verse - 2:16-2:25
E|----------------------------------|
B|---(11)---(12)------(11)----(11)--|
G|----------------------------------|
D|(13)---(13)-------------(13)------|
A|----------------------------------|
D|----------------------------------|

Guitar 2&3 Distortion - Verse - 2:16-2:25
E|-------------------------|--------------------------|
B|-------------------------|--------------------------| 
G|-------(6)--(4)----------|------(6)--(4)------------|
D|(1)----(6)--(4)------(6)-|(1)---(6)--(4)-------66---| Repeat
A|(1)----(4)--(2)------(6)-|(1)---(4)--(2)-------66---|
D|(1)------------------(6)-|(1)------------------66---|
                                                 ..
Guitar 1&2 Distortion - Bridge - 2:26-3:02
E|----------------------------V*|-------------------V*|
B|------------------------------|---------------------|
G|------------------------------|---------------------|
D|-----3h5p3-----4h6p4---4h6----|---3h5p3-----4h6p4---|   
A|------------------------------|---------------------|
D|------------------------------|---------------------|

E|---------------------------V*-|-------------------V*|
B|------------------------------|---------------------|
G|------------------------------|---------------------|
D|-----3h5p3-----4h6p4---4h6----|---3h5p3-----4h6p4---|   
A|------------------------------|---------------------|
D|------------------------------|---------------------|

E|---------------------------V*-|-------------------V*|
B|------------------------------|---------------------|
G|------------------------------|---------------------|
D|-----3h5p3-----4h6p4---4h6----|---3h5p3-----4h6p4---|   
A|------------------------------|---------------------|
D|------------------------------|---------------------|

E|---------------------------V*-|-------------------V*|
B|------------------------------|---------------------|
G|------------------------------|---------------------|
D|-----3h5p3-----4h6p4---4h6----|---3h5p3-----4h6p4---|   
A|------------------------------|---------------------|
D|------------------------------|---------------------|

E|------------------------------|------------------------------|
B|------------------------------|------------------------------|
G|------------------------------|------------------------8~~~~-|
D|-----4h6p4-----6h8p6---6h8-9--|-----4h6p4-----6h8p6----------|
A|------------------------------|------------------------------|
D|------------------------------|------------------------------|

E|---------------------------V*-|-------------------V*|
B|------------------------------|---------------------|
G|------------------------------|---------------------|
D|-----3h5p3-----4h6p4---4h6----|---3h5p3-----4h6p4---|   
A|------------------------------|---------------------|
D|------------------------------|---------------------|

Guitar 3 Distortion - Bridge - 2:26-3:02
E|--------------------|----------------------|-----------|
B|--------------------|----------------------|-----------|
G|--------------------|----------------------|-----------|
D|(1)---------11------|(1)--------------11---|---10\-----|
A|(1)---------11------|(1)--------------11---|---10\-----|
D|(1)---------11------|(1)--------------11---|---10\-----|
              ..                        ..
E|--------------------------------------------------------|
B|--------------------------------------------------------|
G|--------------------------------------------------------|
D|11-------11--------1--------11---------11---------1-----| Repeat
A|11-------11--------1--------11---------11---------1-----|
D|11-------11--------1--------11---------11---------1-----|
  ..       ..        .        ..         ..         .
E|--------------------------------------------------------|
B|--------------------------------------------------------|
G|--------------------------------------------------------|
D|44-------44-----4--------66---------66--------6---------|
A|22-------22-----2--------44---------44--------4---------|
D|--------------------------------------------------------|
  ..       ..     .        ..         ..        .
E|--------------------------------------------------------|
B|--------------------------------------------------------|
G|--------------------------------------------------------|
D|11-------11--------1--------11---------11---------1-----| 
A|11-------11--------1--------11---------11---------1-----|
D|11-------11--------1--------11---------11---------1-----|
  ..       ..        .        ..         ..         .

Guitar 1 Distortion - Outro - 3:03-3:42
E|------------------------------------------|
B|------------------------------------------|
G|------------------------------------------|
D|-1111111111111111111111111111111111111111-|
A|-1111111111111111111111111111111111111111-|
D|-1111111111111111111111111111111111111111-|

E|-----------------------------------------|
B|-----------------------------------------|
G|-----6666------8888------TTTT------EEEE--|
D|x1-1-xxxx-x1-1-xxxx-x1-1-xxxx-x1-1-xxxx--|
A|x1-1-4444-x1-1-6666-x1-1-8888-x1-1-9999--|
D|x1-1------x1-1------x1-1------x1-1-------|

E|------------------------------------------|
B|------------------------------------------|
G|-4444444444444444444444444444444444444444-|
D|-4444444444444444444444444444444444444444-|
A|-4444444444444444444444444444444444444444-|
D|------------------------------------------|

E|------------------------------------------|
B|------------------------------------------|
G|------------------------------------------|
D|-6666666666666666666666666666666666666666-|
A|-6666666666666666666666666666666666666666-|                  
D|-6666666666666666666666666666666666666666-|

Guitar 2&3 - Distortion - Outro - 3:03-3:42
E|------------------------------------------|
B|------------------------------------------|
G|------------------------------------------|
D|-1111111111111111111111111111111111111111-|
A|-1111111111111111111111111111111111111111-|
D|-1111111111111111111111111111111111111111-|

E|------------------------------------------|
B|------------------------------------------|
G|------------------------------------------|
D|-1111111111111111111111111111111111111111-|
A|-1111111111111111111111111111111111111111-|
D|-1111111111111111111111111111111111111111-|

E|------------------------------------------|
B|------------------------------------------|
G|-4444444444444444444444444444444444444444-|
D|-4444444444444444444444444444444444444444-|
A|-4444444444444444444444444444444444444444-|
D|------------------------------------------|

E|------------------------------------------|
B|------------------------------------------|
G|------------------------------------------|
D|-6666666666666666666666666666666666666666-|
A|-6666666666666666666666666666666666666666-|                  
D|-6666666666666666666666666666666666666666-|

Guitar 1 Clean - Outro Fill - 3:25-3:42
E|----------------------------------|
B|---(11)----(12)-------(11)----(11)|
G|----------------------------------|
D|(13)---(13)---------------(13)----|  
A|----------------------------------|  
D|----------------------------------| 

Guitar 2&3 - Outro Fill - 3:25-3:42
E|-----------------------|
B|-----------------------|
G|-----------------------|
D|(1)--------------------|
A|(1)--------------------|
D|(1)--------------------|


=============================================================================
                               Decembers
=============================================================================

ntro/verse

e)11111111-33333333-11111111-00000000-|
b)11111111-11111111-33333333-11111111-|
g)22222222-xxxxxxxx-22222222-00000000-|
d)33333333-33333333-00000000-22222222-|
a)33333333-33333333-xxxxxxxx-33333333-|
e)11111111-00000000----------xxxxxxxx-|


optional piano part, very simple.repeat as needed

e)
b)1010101010101081010101010106/5-5/6
g)
d)
a)
e)

the lead guitar will occasionally do this

e)--5~--------8~-|
b)-6~-------6~---|
g)---------------|
d)---------------|
a)---------------|
e)---------------|


pre-chorus,

"You Don't Have To Speak Because"...
e)11111111000000001111111111111111
b)11111111111111113333333333333333
g)33333333000000002222222222222222
d)33333333222222220000000000000000
a)1111111133333333xxxxxxxxxxxxxxxx
e)--------------------------------

e)----------------------------------|
b)6/5-8/6-10/8-11/10-13/11-15/13-15-|
g)----------------------------------|
d)----------------------------------|
a)----------------------------------|
e)----------------------------------|


Chorus:
e)11111111000000003333333300000000
b)11111111111111113333333311111111
g)33333333000000003333333300000000
d)33333333222222225555555522222222
a)11111111333333335555555533333333
e)xxxxxxxxxxxxxxxx33333333xxxxxxxx


play verse again and for the 2nd verse lead guitar plays this.

e)------------------|
b)8/10-13/8-8/6-6/5-|
g)------------------|
d)------------------|
a)------------------|
e)------------------|


back top prechorus
then choruc again

and after that play the harmonized solo
first guitar plays.

play 2x's                        second time playing this part end on this
e)---------------------          ---------------|
b)8/6-8/6-6/5-6/5-5/3-3          3/5-5/6-6/8-6~-|
g)---------------------          ---------------|
d)---------------------          ---------------|
a)---------------------          ---------------|
e)---------------------          ---------------|


2nd guitar comes in with this for the harmony
play once
e)6/5-8/5-5/35/3-3/1-1/3-3/5-5/6-5~-|
b)----------------------------------|
g)----------------------------------|
d)----------------------------------|
a)----------------------------------|
e)----------------------------------|


then play out with this
e)1111111100000000111111110000000011111111000000003333333300000000
b)3333333311111111111111111111111133333333111111113333333311111111
g)2222222200000000333333330000000022222222000000003333333300000000
d)0000000022222222333333332222222200000000222222225555555522222222
a)xxxxxxxx333333331111111133333333xxxxxxxx333333335555555533333333
e)--------xxxxxxxxxxxxxxxxxxxxxxxx--------xxxxxxxx33333333xxxxxxxx


=============================================================================
=============================================================================

Enjoy
Добавлено: 05.12.2013
Другие материалы по этой песне:
  • Аккорды и текст

Страница создана 10.11.2013
http://primanota.ru/hawthorne-heights/if-only-you-were-lonely-chords.htm
Привет, Гость.
Предлагаем пройти революционный курс по гитаре.
Подарок от PrimaNota.Ru, забирай!