PrimaNota.ru - самый крупный в мире бесплатный архив песенных текстов, аккордов, табулатур и нот


Hawthorne Heights - Do You Have A Map Cause Im Lost In Your Eyes - таба, видео

Регистрация Запомнить меня
Войти через:  Facebook Google Twitter Vk Yandex Mail.ru

Hawthorne Heights - Do You Have A Map Cause Im Lost In Your Eyes - таба, видео

Печатать
Просмотров: 78
-----------------------------------------------------------------------------------------
Do You Have A Map 'Cause I'm Lost In Your Eyes - Hawthorne Heights (As A Day In The Life)
-----------------------------------------------------------------------------------------
Tabbed by: Nate
Email: Violask81976@yahoo.com

Tuning: eBGDAE (standard)

e|---------------------------------------------------------------------------|
B|---------------------------------------------------------------------------|
G|---------------------------------------------------------------------------|
D|-----4-4----5p4p0-----2--2-2--2-2-----------5p4p0------2--2-2--2-2---------|
A|-----2-2--------------0--0-0--0-0----4-4---------------0--0-0--0-0---------|
E|-------------------------------------2-2-----------------------------------|

e|---------------------------------------------------------------------------|
B|---------------------------------------------------------------------------|
G|---------------------------------------------------------------------------|
D|-----4-4----5p4p0-----2--2-2--2-2-----------5p4p0------2--2-2--2-2---------|
A|-----2-2--------------0--0-0--0-0----4-4---------------0--0-0--0-0---------|
E|-------------------------------------2-2-----------------------------------|

e|---------------------------------------------------------------------------|
B|---------------------------------------------------------------------------|
G|---------------------------------------------------------------------------|
D|-----4-4----5p4p0-----2--2-2--2-2-----------5p4p0------2--2-2--2-2---------|
A|-----2-2--------------0--0-0--0-0----4-4---------------0--0-0--0-0---------|
E|-------------------------------------2-2-----------------------------------|

e|---------------------------------------------------------------------------|
B|---------------------------------------------------------------------------|
G|---------------------------------------------------------------------------|
D|-----4-4----5p4p0-----2--2-2--2-2-----------5p4p0------2--2-2--2-2---------|
A|-----2-2--------------0--0-0--0-0----4-4---------------0--0-0--0-0---------|
E|-------------------------------------2-2-----------------------------------|

e|---------------------------------------------------------------------------|
B|---------------------------------------------------------------------------|
G|---------------------------------------------------------------------------|
D|-----4-4----5p4p0-----2--2-2--2-2-----------5p4p0------2--2-2--2-2---------|
A|-----2-2--------------0--0-0--0-0----4-4---------------0--0-0--0-0---------|
E|-------------------------------------2-2-----------------------------------|

e|---------------------------------------------------------------------------|
B|---------------------------------------------------------------------------|
G|---------------------------------------------------------------------------|
D|-----4-4----5p4p0-----2--2-2--2-2-----------5p4p0------2--2-2--2-2---------|
A|-----2-2--------------0--0-0--0-0----4-4---------------0--0-0--0-0---------|
E|-------------------------------------2-2-----------------------------------|

0:26

e|---------------------------------------------------------------------------|
B|---------------------------------------------------------------------------|
G|---------------------------------------------------------------------------|
D|---------------------------------------------------------------------------|
A|-----9-------------------------------7-------------------------------------|
E|-----7-7-7-7-7-7-7-7-7-7-7-7-7-7-7-7-5-5-5-5-5-5-5-5-5-5-5-5-5-5-5-5-------|

e|---------------------------------------------------------------------------|
B|---------------------------------------------------------------------------|
G|---------------------------------------------------------------------------|
D|---------------------------------------------------------------------------|
A|-----6-------------------------------7-------------------------------------|
E|-----4-4-4-4-4-4-4-4-4-4-4-4-4-4-4-4-5-5-5-5-5-5-5-5-5-5-5-5-5-5-5-5-------|

e|---------------------------------------------------------------------------|
B|---------------------------------------------------------------------------|
G|---------------------------------------------------------------------------|
D|---------------------------------------------------------------------------|
A|-----9-------------------------------7-------------------------------------|
E|-----7-7-7-7-7-7-7-7-7-7-7-7-7-7-7-7-5-5-5-5-5-5-5-5-5-5-5-5-5-5-5-5-------|

e|---------------------------------------------------------------------------|
B|---------------------------------------------------------------------------|
G|---------------------------------------------------------------------------|
D|---------------------------------------------------------------------------|
A|-----6-------------------------------7-------------------------------------|
E|-----4-4-4-4-4-4-4-4-4-4-4-4-4-4-4-4-5-5-5-5-5-5-5-5-5-5-5-5-5-5-5-5-------|

0:45

e|---------------------------------------------------------------------------|
B|---------------------------------------------------------------------------|
G|---------------------------------------------------------------------------|
D|---------------------------------------------------------------------------|
A|-----9--9.---9----10--10.---11--9---9---9---9------7-7-7-7-7-7-7-7---------|
E|-----7--7.---7----8---8.----9---7-7-7-7-7-7-7-7-7--------------------------|

e|---------------------------------------------------------------------------|
B|---------------------------------------------------------------------------|
G|---------------------------------------------------------------------------|
D|---------------------------------------------------------------------------|
A|-----7-7-7-7-7-7-7-7----9--9.---9----10--10.---11--9---9---9---9-----------|
E|------------------------7--7.---7----8---8.----9---7-7-7-7-7-7-7-7-7-------|

e|---------------------------------------------------------------------------|
B|---------------------------------------------------------------------------|
G|---------------------------------------------------------------------------|
D|---------------------------------------------------------------------------|
A|-----7-7-7-7-7-7-7-7-7-7-7-7-7-7-7-7---------------------------------------|
E|---------------------------------------------------------------------------|

1:03

e|---------------------------------------------------------------------------|
B|---------------------------------------------------------------------------|
G|---------------------------------------------------------------------------|
D|-----4-4----5p4p0-----2--2-2--2-2-----------5p4p0------2--2-2--2-2---------|
A|-----2-2--------------0--0-0--0-0----4-4---------------0--0-0--0-0---------|
E|-------------------------------------2-2-----------------------------------|

e|---------------------------------------------------------------------------|
B|---------------------------------------------------------------------------|
G|---------------------------------------------------------------------------|
D|-----4-4----5p4p0-----2--2-2--2-2-----------5p4p0------2--2-2--2-2---------|
A|-----2-2--------------0--0-0--0-0----4-4---------------0--0-0--0-0---------|
E|-------------------------------------2-2-----------------------------------|

Slow down...

e|---------------------------------------------------------------------------|
B|---------------------------------------------------------------------------|
G|---------------------------------------------------------------------------|
D|---------------------------------------------------------------------------|
A|---------------------------------------------------------------------------|
E|-----7-7-7-7-7-7-7-7-7-7-7-7-7-7-7-7-5-5-5-5-5-5-5-5-5-5-5-5-5-5-5-5-------|

e|---------------------------------------------------------------------------|
B|---------------------------------------------------------------------------|
G|---------------------------------------------------------------------------|
D|---------------------------------------------------------------------------|
A|---------------------------------------------------------------------------|
E|-----4-4-4-4-4-4-4-4-4-4-4-4-4-4-4-4-5-5-5-5-5-5-5-5-5-5-5-5-5-5-5-5-------|

e|---------------------------------------------------------------------------|
B|---------------------------------------------------------------------------|
G|---------------------------------------------------------------------------|
D|---------------------------------------------------------------------------|
A|---------------------------------------------------------------------------|
E|-----7-7-7-7-7-7-7-7-7-7-7-7-7-7-7-7-5-5-5-5-5-5-5-5-5-5-5-5-5-5-5-5-------|

e|---------------------------------------------------------------------------|
B|---------------------------------------------------------------------------|
G|---------------------------------------------------------------------------|
D|---------------------------------------------------------------------------|
A|---------------------------------------------------------------------------|
E|-----4-4-4-4-4-4-4-4-4-4-4-4-4-4-4-4-5-5-5-5-5-5-5-5-5-5-5-5-5-5-5-5-------|

1:33

e|---------------------------------------------------------------------------|
B|---------------------------------------------------------------------------|
G|---------------------------------------------------------------------------|
D|---------------------------------------------------------------------------|
A|-----9-------7-------6-------7-------9-------7-------6-------7-------------|
E|-----7-------5-------4-------5-------7-------5-------4-------5-------------|

e|---------------------------------------------------------------------------|
B|---------------------------------------------------------------------------|
G|---------------------------------------------------------------------------|
D|---------------------------------------------------------------------------|
A|-----9--9.---9----10--10.---11--9---9---9---9------7-7-7-7-7-7-7-7---------|
E|-----7--7.---7----8---8.----9---7-7-7-7-7-7-7-7-7--------------------------|

e|---------------------------------------------------------------------------|
B|---------------------------------------------------------------------------|
G|---------------------------------------------------------------------------|
D|---------------------------------------------------------------------------|
A|-----7-7-7-7-7-7-7-7----9--9.---9----10--10.---11--9---9---9---9-----------|
E|------------------------7--7.---7----8---8.----9---7-7-7-7-7-7-7-7-7-------|

e|---------------------------------------------------------------------------|
B|---------------------------------------------------------------------------|
G|---------------------------------------------------------------------------|
D|--------------------------------------------------------9------------------|
A|-----7-7-7-7-7-7-7-7-7-7-7-7-7-7-7-7----9----------------------------------|
E|----------------------------------------7----------------------------------|

2:25

e|---------------------------------------------------------------------------|
B|---------------------------------------------------------------------------|
G|---------------------------------------------------------------------------|
D|-----9-9---9-9---9-9---9-9---9-9-9-9-11-11---11-11---11-11---11-11---------|
A|---------------------------------------------------------------------------|
E|---------------------------------------------------------------------------|

e|---------------------------------------------------------------------------|
B|---------------------------------------------------------------------------|
G|----------------------------------------------------------------9-9--------|
D|-----11-11-11-11-11-12-12---12-12---12-12---12-12---12-12-12-12------------|
A|---------------------------------------------------------------------------|
E|---------------------------------------------------------------------------|

e|---------------------------------------------------------------------------|
B|---------------------------------------------------------------------------|
G|-----9-9---12-12---12------------------------------------------------------|
D|---------------------------------------------------------------------------|
A|-----------------------pick slide from high fret down----------------------|
E|-----------------------pick slide from high fret down----------------------|

e|---------------------------------------------------------------------------|
B|---------------------------------------------------------------------------|
G|---------------------------------------------------------------------------|
D|-----9-9---9-9---9-9---9-9---9-9-9-9-11-11---11-11---11-11---11-11---------|
A|---------------------------------------------------------------------------|
E|---------------------------------------------------------------------------|

e|---------------------------------------------------------------------------|
B|---------------------------------------------------------------------------|
G|----------------------------------------------------------------9-9--------|
D|-----11-11-11-11-11-12-12---12-12---12-12---12-12---12-12-12-12------------|
A|---------------------------------------------------------------------------|
E|---------------------------------------------------------------------------|

e|---------------------------------------------------------------------------|
B|---------------------------------------------------------------------------|
G|-----9-9-------------------------------------------------------------------|
D|-----------12-12-12---12------9-9---9-9---9-9---9-9---9-9-9-9-11-11--------|
A|---------------------------------------------------------------------------|
E|---------------------------------------------------------------------------|

e|---------------------------------------------------------------------------|
B|---------------------------------------------------------------------------|
G|---------------------------------------------------------------------------|
D|-----11-11---11-11---11-11---11-11-11-11-11-12-12---12-12---12-12----------|
A|---------------------------------------------------------------------------|
E|---------------------------------------------------------------------------|

e|---------------------------------------------------------------------------|
B|---------------------------------------------------------------------------|
G|-------------------------9-9---9-9-----------------------------------------|
D|-----12-12---12-12-12-12-----------12-12---12-12--12---12-12---9-9---------|
A|---------------------------------------------------------------------------|
E|---------------------------------------------------------------------------|

e|---------------------------------------------------------------------------|
B|---------------------------------------------------------------------------|
G|-----9-9-------------------------------------------------------------------|
D|-----------11-11---11---11---9---------------------------------------------|
A|-----------------------------7---------------------------------------------|
E|---------------------------------------------------------------------------|



| /  Slide up
| \  Slide down
| h  Hammer-on
| p  Pull-off
| ~  Vibrato
| +  Harmonic
| x  Mute note
| .  Staccato note
===============================================================================
Добавлено: 25.09.2013
Другие материалы по этой песне:
  • Аккорды и текст

Страница создана 25.09.2013
http://primanota.ru/hawthorne-heights/do-you-have-a-map-cause-im-lost-in-your-eyes-chords.htm
Привет, Гость.
Предлагаем пройти революционный курс по гитаре.
Подарок от PrimaNota.Ru, забирай!