PrimaNota.ru - самый крупный в мире бесплатный архив песенных текстов, аккордов, табулатур и нот


Hawthorne Heights - Disaster - текст песни, таба, видео

Регистрация Запомнить меня
Войти через:  Facebook Google Twitter Vk Yandex Mail.ru

Hawthorne Heights - Disaster - текст песни, таба, видео

Печатать
Просмотров: 167
Уроки эстрадного вокала в Санкт-Петербурге

''Disaster'' from Hawthorne Height's new ablumn Fragile Future.

H= Hammer on
~= Let ring


Hi I'm Tanner. I'm just guessing haven't really listened to the song yet haha but here it goes.

Intro/Verse- Rythym Guitar
E----------------------------------------------------------------|
B----------------------------------------------------------------|
G----------------------------------------------------------------|
D----------------------------------------------------------------|
A-----11-----11-----11-----11-----9-----9-----9-----9------------|
E--9------9------9------9------7-----7-----7-----7---------------|


Repeat until this line 
E-------------------------|---------------------------------------|
B-------------------------|---------------------------------------|
G-------------------------|---------------------------------------|
D-------------------------|---------------------------------------|
A-----7-----7-----7-----7-|----9-----9-----9-----9----------------|
E--5-----5-----5-----5----|-0-----0-----0-----0-------------------|


E-----------------------------------------------------------------|
B-----------------------------------------------------------------|
G-----------------------------------------------------------------|
D-----------------------------------------------------------------|
A-----6-----6-----6-----6-----------------------------------------|
E--7-----7-----7-----7--------------------------------------------|

VERSE- Lead
E-----------------------------------------------------------------|
B-----------------------------------------------------------------|
G--------9--------9--11~~-----------------------------------------|
D--9H11-----11~~--------------------------------------------------|
A-----------------------------------------------------------------|
E-----------------------------------------------------------------|







Добавлено: 22.11.2013
Другие материалы по этой песне:
  • Аккорды и текст

Страница создана 01.09.2013
http://primanota.ru/hawthorne-heights/disaster-chords.htm
Привет, Гость.
Предлагаем пройти революционный курс по гитаре.
Подарок от PrimaNota.Ru, забирай!