PrimaNota.ru - самый крупный в мире бесплатный архив песенных текстов, аккордов, табулатур и нот


Hawthorne Heights - Abandoned Driveways - текст песни, таба, видео

Регистрация Запомнить меня
Войти через:  Facebook Google Twitter Vk Yandex Mail.ru

Hawthorne Heights - Abandoned Driveways - текст песни, таба, видео

Печатать
Просмотров: 80
Standard tuning

Intro:

First part of intro played by bass, then guitar kicks in with this:

e|-----------------------------------------------|
B|-----------------------------------------------|
G|-----------------------------------------------|
D|-3-3-3-3---------5-5-5-5-------7-7-7-7---------|
A|-3-3-3-3-5-3-5-3-5-5-5-5-5-3-7-7-7-7-7--10-----|
E|-1-1-1-1---------3-3-3-3-------5-5-5-5-----8---|

e|-----------------------|
B|-----------------------|
G|-----------------------|  x3 
D|--7-7-7-7--------------|  
A|--7-7-7-7--10----------|
E|--5-5-5-5-----8--------|

e|--------------------------------|
B|--------------------------------|
G|--------------------------------|
D|-3-3-3-3---------5-5-5-5--------|
A|-3-3-3-3-5-3-5-3-5-5-5-5-5-3-7--|
E|-1-1-1-1---------3-3-3-3--------|


Verse:

Actually played only by bass I think, but you can play this on guitar:

e|------------------------|
B|------------------------|
G|------------------------|
D|------------------------|
A|-----------10-5-3-5-3-5-|
E|-5-3-5-7-8--------------|


e|--------------------------|
A|--------------------------|
D|------------------------9-|
G|------------------------9-|
B|-----------10-5-3-5-3-5-7-|
E|-5-3-5-7-8--------------8-|


Chorus:

e|-----------------------|
B|-----------------------|
G|-----------------------|  x4 
D|--7-7-7-7--------------|  
A|--7-7-7-7--10----------|
E|--5-5-5-5-----8--------|

e|-----------------------------------------------|
B|-----------------------------------------------|
G|-----------------------------------------------|
D|-3-3-3-3---------5-5-5-5-------7-7-7-7---------|
A|-3-3-3-3-5-3-5-3-5-5-5-5-5-3-7-7-7-7-7--10-----|
E|-1-1-1-1---------3-3-3-3-------5-5-5-5-----8---|

e|-----------------------|
B|-----------------------|
G|-----------------------|  x3 
D|--7-7-7-7--------------|  
A|--7-7-7-7--10----------|
E|--5-5-5-5-----8--------|


e|--------------------------------|
B|--------------------------------|
G|--------------------------------|
D|-3-3-3-3---------5-5-5-5--------|
A|-3-3-3-3-5-3-5-3-5-5-5-5-5-3-7--|
E|-1-1-1-1---------3-3-3-3--------|


Verse

Chorus

Bridge:

e|------------------------|
B|------------------------|
G|------------------------| x3
D|-7-7---7-7---3-3---3-3--|
A|-7-7---7-7---3-3---3-3--|
E|-5-5---5-5---1-1---1-1--|

e|----------------------------------|
B|----------------------------------|
G|----------------------------------|
D|-5-5-5-5-5-5-5-5--3-3-3-3-3-3-3-3-|
A|-5-5-5-5-5-5-5-5--3-3-3-3-3-3-3-3-|
E|-3-3-3-3-3-3-3-3--1-1-1-1-1-1-1-1-|

e|-----------------------|
B|-----------------------|
G|-----------------------|  x3 
D|--7-7-7-7--------------|  
A|--7-7-7-7--10----------|
E|--5-5-5-5-----8--------|

e|---------------------------------|
B|---------------------------------|
G|---------------------------------|
D|-7-7-7-7---3-3-3-3---------------|
A|-7-7-7-7---3-3-3-3---------------|
E|-5-5-5-5---1-1-1-1---------------|
	 p.m . . . .


Chorus

End on

e|-----|
B|-----|
G|-----|
D|-5-5-|
A|-5-5-|
E|-7-7-|
Добавлено: 07.10.2013
Другие материалы по этой песне:
  • Аккорды и текст

Страница создана 07.10.2013
http://primanota.ru/hawthorne-heights/abandoned-driveways-chords.htm
Привет, Гость.
Предлагаем пройти революционный курс по гитаре.
Подарок от PrimaNota.Ru, забирай!