PrimaNota.ru - самый крупный в мире бесплатный архив песенных текстов, аккордов, табулатур и нот


Hawthorne Heights - 321 - таба, видео

Регистрация Запомнить меня
Войти через:  Facebook Google Twitter Vk Yandex Mail.ru

Hawthorne Heights - 321 - таба, видео

Печатать
Просмотров: 85
Intro

Rhythm guitar
E|----------------------|
B|----------------------|
G|----------------------|
D|----------------------|
A|---8-7-------8-7------|
D|-0-----0-0-0-----7-10-|

LEAD GUITAR
E|----------------------|
B|----------------------|
G|-----5---12--7--14----|
D|----------------------|
A|-----3---10--5--12----|
D|----------------------|

E|----------------------|
B|----------------------|
G|-14-------17-------19-|
D|----------------------|
A|-12-strum-15-strum-17-|
D|----------------------|

D
3, 2, 1
Blank pages are a loaded gun
F
These phases all ended once
G                                          D
Please tell me what you want to hear right now
D
It doesn't matter how
F
These days I can't live without
                   G
The way you always try to bring me down

pRE CHORUS
E|-------------------------------------------------------------|
B|-------------------------------------------------------------|
G|-10-10-10-9-9-9-12-12-12-10-10-10-14-14-14-12-12-12-15-15-14-|
D|-------------------------------------------------------------|
A|-8--8--8--7-7-7-10-10-10-8--8--8--12-12-12-10-10-10-13-13-12-|
D|-------------------------------------------------------------|

(CHORUS)
D
I feel so temporary
A                             C
Throw me away for an ordinary life
                             G
You know you've done once or twice    X2
You know you've done it, done it

D
3, 2, 1
The clock is already done
    F
The time is gone,This all went wrong
    G
Now we're all waiting for the backup plan
D
Take me by the hand, Please try to make me understand
    F
The choice is made, Now it's too late
     G
I'll exit now to an early grave

PRE CHOURS

(CHORUS 2)

The clock stops, taking second chances  X3
The clock stole, the darkness
E|-----------------------------------------------|
B|-----------------------------------------------|
G|-----------------10-9------------------6T5-----|
D|---------7-5-7-5-----7---------7-5-7-5---------|
A|-----8-7-------------------8-7-----------------|
D|-0-0-------------------0-0---------------------|

(CHORUS 3) X2

OUTRO
E|---------------5-----5--3---3---1-|
B|-10--10------6-----6---3---3----3-|
G|----7---7--5-----5--------------2-|
D|--------------------------------0-|
A|----------------------------------|
D|----------------------------------|
Добавлено: 16.11.2013
Другие материалы по этой песне:
  • Аккорды и текст

Страница создана 16.11.2013
http://primanota.ru/hawthorne-heights/321-chords.htm
Привет, Гость.
Предлагаем пройти революционный курс по гитаре.
Подарок от PrimaNota.Ru, забирай!