PrimaNota.ru - самый крупный в мире бесплатный архив песенных текстов, аккордов, табулатур и нот


Hawkwind - Fifth Second of Forever - текст песни, таба, видео

Регистрация Запомнить меня
Войти через:  Facebook Google Twitter Vk Yandex Mail.ru

Hawkwind - Fifth Second of Forever - текст песни, таба, видео

Печатать
Просмотров: 133
            hawkwind - the fifth second of forever
            from the album 'levitation'
            transcribed by
            juho@3undead.zzn.com.no.spam.please

            intro

            e|------------------------------------------------------
            b|-8p6--8/10--10p9--10-12-----8p6--8/10--5---b6---b5----
            g|------------------------------------------------------
            d|-0--------------------------0-------------------------
            a|-----------------------------------------------0------
            e|------------0------------0-------------0---------0----

            e|---------------------------------------------12-------
            b|-8p6--8/10--10p9--10-12-----13-p12-p10----------------
            g|------------------------------------------------------
            d|-0----------------------------------------------------
            a|----------------------------0-----------0-------------
            e|------------0-----------------------------------------

            e|---------------------------------------------12-------
            b|-12--13p12p11/9-------------13-p12-p10----------------
            g|------------------------------------------------------
            d|------------------------------------------------------
            a|----------------------------0-----------0-------------
            e|-0----------------------------------------------------

            e|---------------------------------------------12-------
            b|-12---b13-b12---------------13-p12-p10----------------
            g|------------------------------------------------------
            d|------------------------------------------------------
            a|----------------------------0-----------0-------------
            e|-0----------------------------------------------------

            e|---------------------------------------------12-------
            b|-12--13p12p11/9-------------13-p12-p10----------------
            g|------------------------------------------------------
            d|------------------------------------------------------
            a|----------------------------0-----------0-------------
            e|-0----------------------------------------------------

            e|-16--12--13--10--12--8--10--7-------------------------
            b|------------------------------------------------------
            g|------------------------------------------------------
            d|-------------------------------     and repeat once
            a|------------------------------------------------------
            e|-0----------------------------------------------------



     
Добавлено: 20.10.2013
Другие материалы по этой песне:
  • Аккорды и текст

Страница создана 26.03.2012
http://primanota.ru/hawkwind/fifth-second-of-forever-chords.htm
Привет, Гость.
Предлагаем пройти революционный курс по гитаре.
Подарок от PrimaNota.Ru, забирай!