PrimaNota.ru - самый крупный в мире бесплатный архив песенных текстов, аккордов, табулатур и нот


Hawkboy - Two Bit - аккорды и текст, видео

Регистрация Запомнить меня
Войти через:  Facebook Google Twitter Vk Yandex Mail.ru

Hawkboy - Two Bit - аккорды и текст, видео

Печатать
Просмотров: 117
Two Bit
Hawkboy
Hawkboy
Two Bit

Any chord followed by (2) means play the chord one octave higher. 
During the bridge, parts marked 1*, 2*, 3*, etc. correspond to riffs tabbed below.


B                       D
Lover got caught in the rapture            G|---------------|
F#                             (Bass Fill) D|-7p5---7p5-----|
Vanished right, vanished right             A|-----7-----7p5-|
B                       D                  E|---------------|
Lover got caught in the rapture
F#(2)
Vanished right, vanished right


Bm    Em(2)   A    D    G    Em(2)
Oooooooooh
Dm          Dsus2
Oh no...

Bm
Your lover got caught in the rapture
F#m                                             Bm
Vanished right, vanished right from your side
        F#m
I guess they were right after all



Bm
Em(2)                 A
Don't say you weren't warned 
               D
Nobody's found behind the wheel
               G
They were just empty clothes crashing those cars
     Em(2)
In a flash they were gone
         C#m
But your lover got caught, lover got caught, lover got caught, lover got caught...


Bm                         D
Lover got caught up in the rapture
F#m
Vanished right, vanished right from your side
Bm                 D
Nobody saw nothing faster
Em(2)                     F#m A
They were right after all
Bm                         D
Lover got caught up in the rapture
F#m
Vanished right, vanished right
G                     D
If you weren't such a bastard
             A
You would be better off

                       1*
But now you're left to burn
           2*
Gnash your teeth
           3*         4*
No time to pass or perceive
2*   1*   5*   6*   7*

   1*    x4   | 2*    x4   | 3*
e|------------|------------|------------------------------------------------|
B|--------8---|--------3---|--------------------5---------------------------|
G|----------9-|----------4-|----------6-----------6-----------6-----------6-|
D|------------|------------|--------5-----------------------5-----------5---|
A|-7-7--7-----|-2-2--2-----|-4-4--4------4-4--4------4-4--4------4-4--4-----|
E|------------|------------|------------------------------------------------|

   4*                                          | 5*    x4   | 6*    x4
e|---------------------------------------------|------------|---------------|
B|---------------------------------------------|------------|--------7------|
G|---------------------------------------------|--------6---|----------7----|
D|---------------2-----------------------------|----------7-|---------------|
A|-----------------4-----------------0-----5p4-|------------|-5-5--5--------|
E|-2-2-2-2-2-2-2-----2-2-2p0h2-2p0h2---2p0-----|-5-5--5-----|---------------|

   7*
e|------------------------------------|
B|------------------------------------|
G|--------4-----------4-----------3~~-|
D|----------5-----------5-------------|
A|------------------------------------|
E|-3-3--3------3-3--3------2-2--2-----|



Bm                         D
Lover got caught up in the rapture
F#m
Vanished right from your side
Bm                    D
No nobody saw nothing faster
F#m(2)
They were right 
A
Oh, a thief at night

Bm    D     F#m(2)
Bm    D     Em(2)   F#m A
G (2 fr.)                  D
If you weren't such a bastard
             F#m(2)
You would be better off
Bm
Now you're left to...
Bm

Добавлено: 26.05.2012
Другие материалы по этой песне:
  • Аккорды и текст

Страница создана 26.05.2012
http://primanota.ru/hawkboy/two-bit-chords.htm
Привет, Гость.
Предлагаем пройти революционный курс по гитаре.
Подарок от PrimaNota.Ru, забирай!