PrimaNota.ru - самый крупный в мире бесплатный архив песенных текстов, аккордов, табулатур и нот


Hawkboy - Scoundrel - таба, видео

Регистрация Запомнить меня
Войти через:  Facebook Google Twitter Vk Yandex Mail.ru

Hawkboy - Scoundrel - таба, видео

Печатать
Просмотров: 80
Уроки эстрадного вокала в Санкт-Петербурге
Verse 1
[0:36]-[1:07]
|-----------------------------------------------------------|
|-----------------------------------------------------------|
|------99----------11-11-----9--------11--11-11--9--9-9-----|
|------------------11-11--------------11--11-11--9--9-9-----|
|--9-12---12--9-12------9-12---1212-9-----------------------|
|-----------------------------------------------------------|
|
|-----------------------------------------------------------|
|-----------------------------------------------------------|
|------99----------11-11-----9------------------------------|
|------------------11-11------------------------------------|
|--9-12---12--9-12------9-12---1212-9--11--11-11-11--11-11--|
|-----------------------------------------------------------|
|
|-----------------------------------------------------------|
|-----------------------------------------------------------|
|------99----------11-11-----9--------11--11-11--9--9-9-----|
|------------------11-11--------------11--11-11--9--9-9-----|
|--9-12---12--9-12------9-12---1212-9-----------------------|
|-----------------------------------------------------------|
|
|-----------------------------------------------------------|
|-----------------------------------------------------------|
|------99----------11-11-----9------------------------------|
|------------------11-11------------------------------------|
|--9-12---12--9-12------9-12---1212-9--11-11----------------|
|-----------------------------------------------------------|
|
|x2


Chorus
[1:22]-[1:37]
|---------------------------------------|
|--0------------0---0-------0---0---0---|
|--11-----------9---11------6---9---11--|
|--11-----------9---11------6---9---11--|
|--9------------7---9-------4---7---9---|
|---------------------------------------|

Repeat Verse 1
[1:45]-[2:00]


Verse 2
[2:00]-[2:15]
|-------------------------------------|
|-------------------------------------|
|-------------------------------------|
|-------------------------------------|
|--0-4-7-4-9-9-9-9--7-4-4-4--4-2-2-2--|
|-------------------------------------|
|
|-------------------------------------|
|-------------------------------------|
|-------------------------------------|
|-------------------------------------|
|--0-4-7-4-9-9-9-9--7-2-4~------------|
|-------------------------------------|
|
|-------------------------------------|
|-------------------------------------|
|-------------------------------------|
|-------------------------------------|
|--0-4-7-4-9-9-9-9--7-4-4-4--4-2-2-2--|
|-------------------------------------|
|
|-------------------------------------|
|-------------------------------------|
|-------------------------------------|
|-------------------------------------|
|--0-2-4-2-4-4-4-4-7-4-4-4-4----------|
|-------------------------------------|

Repeat Chorus x2
[2:15]-[2:45]


Repeat Verse 1
[3:15]-[3:31]
Добавлено: 13.07.2013
Другие материалы по этой песне:
  • Аккорды и текст

Страница создана 13.07.2013
http://primanota.ru/hawkboy/scoundrel-chords.htm
Привет, Гость.
Предлагаем пройти революционный курс по гитаре.
Подарок от PrimaNota.Ru, забирай!