PrimaNota.ru - самый крупный в мире бесплатный архив песенных текстов, аккордов, табулатур и нот


Hawkboy - Mother London - таба, видео

Регистрация Запомнить меня
Войти через:  Facebook Google Twitter Vk Yandex Mail.ru

Hawkboy - Mother London - таба, видео

Печатать
Просмотров: 110
Уроки эстрадного вокала в Санкт-Петербурге
Drop D Tuning


Intro
[0:00]-[0:16]
|--11---8-----------------------------------|
|-----8---8--------11-----------------------|
|------------12-----------10---8---8---8----|
|---------------13----13-----8---8---8---8--|
|-------------------------------------------|
|-------------------------------------------|
|
|--11---8--------------------------------------|
|-----8---8--------11--------------------------|
|------------12-----------10---10---12---12----|
|---------------13----13-----8----8----8----8--|
|----------------------------------------------|
|----------------------------------------------|
|
|--11---8-----------------------------------|
|-----8---8--------11-----------------------|
|------------12-----------10---8---8---8----|
|---------------13----13-----8---8---8---8--|
|-------------------------------------------|
|-------------------------------------------|
|
|-------8---11------8--------------|
|--11-----------11------11--8---6--|
|-----8---8---8---8---8---8---8----|
|----------------------------------|
|----------------------------------|
|----------------------------------|


[0:16]-[0:29]
|--------------------------------------------------------|
|--------------------------------------------------------|
|--66666666----66666666----8-8-8-8-8-8---------66666666--|
|--88888888----88888888----101010101010--6~----88888888--|
|--66666666----66666666----8-8-8-8-8-8---6~----66666666--|
|----------------------------------------6~--------------|

[0:29]-[0:57]
|-----------------------------------------------|
|-----------------------------------------------|
|---------------------666-------------66666666--|
|---------------------888--10-8--6-5--88888888--|
|--6666666666666666666666--11-10-8-6--66666666--|
|-----------------------------------------------|
|
|x2

[0:57]-[1:09]
|----------------------------------|
|-------6------6---------6------6--|
|-------6------6---------6------6--|
|--8~---8------8----6~---8------8--|
|--6~---6------6----6~---6------6--|
|--6~---------------8~-------------|

[1:09]-[1:27]
|--11---8-----------------------------------|
|-----8---8--------11-----------------------|
|------------12-----------10---8---8---8----|
|---------------13----13-----8---8---8---8--|
|-------------------------------------------|
|-------------------------------------------|
|
|--11---8--------------------------------------|
|-----8---8--------11--------------------------|
|------------12-----------10---10---12---12----|
|---------------13----13-----8----8----8----8--|
|----------------------------------------------|
|----------------------------------------------|
|
|--11---8-----------------------------------|
|-----8---8--------11-----------------------|
|------------12-----------10---8---8---8----|
|---------------13----13-----8---8---8---8--|
|-------------------------------------------|
|-------------------------------------------|
|
|-------8---11------8--------------|
|--11-----------11------11--8---6--|
|-----8---8---8---8---8---8---8----|
|----------------------------------|
|----------------------------------|
|----------------------------------|


[1:27]-[1:54]
|--------------------------------------------------------------|
|--------------------------------------------------------------|
|--66666666----66666666----8-8-8-8-8-8---------------66666666--|
|--88888888----88888888----101010101010--10-8--6-5---88888888--|
|--66666666----66666666----8-8-8-8-8-8---11-10-8-6---66666666--|
|--------------------------------------------------------------|
|
|x2

[1:54]-[1:59]
|---------------------------------------------|
|---------------------------------------------|
|--------------666666-------------------------|
|--10-8--6-5---888888---10-8--6-5---88888888--|
|--11-10-8-6---666666---11-10-8-6---66666666--|
|-----------------------------------66666666--|

[2:03]-[2:20]
|-----------------------------------|
|-----------------------------------|
|-----------------------------------|
|---------------------------6-8-10--|
|---------1-2-3--6---6-8-10---------|
|--1~---1---------------------------|
|
|-----------------------------------|
|-----------------------------------|
|-----------------------------------|
|-----------------------------------|
|---------1-2-3--6------------------|
|--1~---1------------4---6----------|
|
|-------------------------------------------------------------------|
|-------------------------------------------------------------------|
|---------------------------------------11p8----8h10p8----8---------|
|---------------------------6-8-10--6-6------6---------10---10-9-8--|
|---------1-2-3--6---6-8-10-----------------------------------------|
|--1~---1-----------------------------------------------------------|


[2:20]-[2:38]
|-----------------------------------|
|-----------------------------------|
|-----------------------------------|
|---------------------------6-8-10--|
|---------1-2-3--6---6-8-10---------|
|--1~---1---------------------------|
|
|-----------------------------------|
|-----------------------------------|
|-----------------------------------|
|-----------------------------------|
|---------1-2-3--6------------------|
|--1~---1------------4--------------|
|
|-------------------------------------------------------------------|
|-------------------------------------------------------------------|
|---------------------------------------11p8------------------------|
|---------------------------6-8-10--6-6------6--6-------------------|
|---------1-2-3--6---6-8-10-----------------------------------------|
|--1~---1-----------------------------------------------------------|


[2:38]-[3:00]
|-----------------------------------|
|-----------------------------------|
|-----------------------------------|
|---------------------------6-8-10--|
|---------1-2-3--6---6-8-10---------|
|--1~---1---------------------------|
|
|-----------------------------------|
|-----------------------------------|
|-----------------------------------|
|-----------------------------------|
|---------1-2-3--6--4---------------|
|--1~---1------------4--------------|
|
|------------------------------------------------|
|------------------------------------------------|
|------------------------------------------------|
|---------------------------6-8-10---10-8--6-5~--|
|---------1-2-3--6---6-8-10----------11-10-8-6~--|
|--1~---1----------------------------------------|
Добавлено: 23.07.2013
Вам также может быть интересно:
Другие материалы по этой песне:
  • Аккорды и текст

Страница создана 23.07.2013
http://primanota.ru/hawkboy/mother-london-chords.htm
Привет, Гость.
Предлагаем пройти революционный курс по гитаре.
Подарок от PrimaNota.Ru, забирай!