PrimaNota.ru - самый крупный в мире бесплатный архив песенных текстов, аккордов, табулатур и нот


Hawk Nelson - Nothing Left To Show - текст песни, таба, видео

Регистрация Запомнить меня
Войти через:  Facebook Google Twitter Vk Yandex Mail.ru

Hawk Nelson - Nothing Left To Show - текст песни, таба, видео

Печатать
Просмотров: 118
Уроки эстрадного вокала в Санкт-Петербурге
intro                             /verse: guitar 1
eb----------------------------------------------------------------->
Bb----------------------------------------------------------------->
Gb---------------7---------------7---------------7----------------->
Db-77-777-777-7-77-77-777-777-7-77-77-777-777-7-77-77-777-777-7-70->
Ab-77-777-777-7-75-77-777-777-7-75-77-777-777-7-75-77-777-777-7-70->
Db-77-777-777-7-7--77-777-777-7-7--77-777-777-7-7--77-777-777-7-70->
                                  life is just a line-up, tell me when my
time's up, too much on my mind today

verse:
eb---------------------------------------------------------------->
Bb---------------------------------------------------------------->
Gb---------777-777------------------------------7----------------->
Db-555-555-777-777-77-777-7775--6-77-777-777-7-77-77-777-777-7-70->
Ab-555-555-555-555-77-777-7775--6-77-777-777-7-75-77-777-777-7-70->
Db-555-555---------77-777-7775--6-77-777-777-7-7--77-777-777-7-70->
there's so much more that I would like to say when I start to climb up,
will you pull my line up, or am I just in the way 

verse:
eb----------------------------------------->
Bb----------------------------------------->
Gb---------777-777------------------------->
Db-555-555-777-777-77-777-7775--6-5~--0~--->
Ab-555-555-555-555-77-777-7775--6-5~--0~--->
Db-555-555---------77-777-7775--6-5~--0~--->
I think about it every single day I think about it every single day

chorus:
eb------------------------------------------------------------------------->
Bb--------------------------------65--------------------------6~----------->
Gb---------77777777444444444777777--7--------777777774444444447~--------7~->
Db-7777777777777777444444444777777---77777777777777774444444447~---5~---7~->
Ab-7777777755555555222222222555555---77777777555555552222222225~---5~---5~->
Db-77777777--------------------------77777777----------------------5~------>
fix us cause we keep falling apart just keep falling apart we're tired of
being alone fix me cause I keep falling apart just keep falling apart will
someone find me?

                 /verse:
eb------------------------------------------------------------------------->
Bb------------------------------------------------------------------------->
Gb-----------------------------7----------------------777-777-------------->
Db-77-777-7775-6-77-777-777-7-77-77-777-777-7-7055-555777-77777-777-7775-6->
Ab-77-777-7775-6-77-777-777-7-75-77-777-777-7-7055-555555-55577-777-7775-6->
Db-77-777-7775-6-77-777-777-7-7--77-777-777-7-7055-555-------77-777-7775-6->
                life is just a line-up, tell me when my time's up, too much
on my mind today there's so much more that I would like to say

verse:
eb------------------------------------------------------------------------>
Bb------------------------------------------------------------------------>
Gb---------------7------------------------777-777------------------------->
Db-77-777-777-7-77-77-777-777-7-70555-555-777-777-77-777-7775--6-5~--0~--->
Ab-77-777-777-7-75-77-777-777-7-70555-555-555-555-77-777-7775--6-5~--0~--->
Db-77-777-777-7-7--77-777-777-7-70555-555---------77-777-7775--6-5~--0~--->
when I start to climb up, will you pull my line up, or am I just in the way
I think about it every single day I think about it every single day

---REPEAT CHORUS

bridge: bass
now I feel like something's going on I feel like something's going on now I
feel like something's going on now I feel like something's going on

bridge: (r=10th fret)
eb-3h555555555555555-3h555555555555555-7h8888888888888888-rrrrrrrrrrrr----->
Bb------------------------------------------------------------------------->
Gb------------------------------------------------------------------------->
Db---------------------------------------------------------------------777->
Ab---------------------------------------------------------------------777->
Db---------------------------------------------------------------------777->
      **************    **************    ************                 ***
now I feel like something's going on now I feel like something's going on
now I feel like something's going on now I feel ahhhhhhhhhh

bridge:
eb----------------------------------------12-12--12~------->
Bb--------------------------------------------------------->
Gb--------------------------------------------------------->
Db-77777777777777777755555555555555555555------------------>
Ab-77777777777777777755555555555555555555------------------>
Db-77777777777777777755555555555555555555------------------>
now I feel like something's going on I feel like something's going on I
feel like something's going on I feel so bad

chorus:
eb------------------------------->
Bb------------------------------->
Gb------------------------------->
Db-7~-----0~-------------------\->
Ab-7~-----0~-------------------\->
Db-7~-----0~-------------------\->
fix us cause we keep falling apart just keep falling apart we're tired of
being alone

---REPEAT CHORUS
Добавлено: 18.04.2012
Другие материалы по этой песне:
  • Аккорды и текст

Страница создана 18.04.2012
http://primanota.ru/hawk-nelson/nothing-left-to-show-chords.htm
Привет, Гость.
Предлагаем пройти революционный курс по гитаре.
Подарок от PrimaNota.Ru, забирай!