PrimaNota.ru - самый крупный в мире бесплатный архив песенных текстов, аккордов, табулатур и нот


Hawk Nelson - Joanna - таба, видео

Регистрация Запомнить меня
Войти через:  Facebook Google Twitter Vk Yandex Mail.ru

Hawk Nelson - Joanna - таба, видео

Печатать
Просмотров: 104
Joanna by Hawk Nelson
Tabbed by Dasell

I hope you like this tab. I do. And
I really Like this song.

Verse:1

   C5                   G5                F5
E-------------------------------------------------------------------------|
B-------------------------------------------------------------------------|
G--5--55555555555555-5----------------------------------------------------|
D--5--55555555555555-5--5-55555555555555--3-33333333333333----------------|
A--3--33333333333333-3--5-55555555555555--3-33333333333333----------------|
E-----**************----3-33333333333333--1-11111111111111----------------|
                          **************    **************
E---------------------------------|
B---------------------------------|
G--5--55555555555555--5-----------|
D--5--55555555555555--5-----------|
A--3--33333333333333--3-----------|
E-----**************--------------|

E--------------------------------------|
B--------------------------------------|
G-5-------------------5----------------|
D-5-5--------3-3-3----5-5--3~----------|
A-3-5--------3-3-3----3-5--3~----------|
E---3--3-5-3-1-1-1------3--1~----------|


   C5                   G5                F5
E-------------------------------------------------------------------------|
B-------------------------------------------------------------------------|
G--5--55555555555555-5----------------------------------------------------|
D--5--55555555555555-5--5-55555555555555--3-33333333333333----------------|
A--3--33333333333333-3--5-55555555555555--3-33333333333333----------------|
E-----**************----3-33333333333333--1-11111111111111----------------|
                          **************    **************
E---------------------------------|
B---------------------------------|
G--5--55555555555555--5-----------|
D--5--55555555555555--5-----------|
A--3--33333333333333--3-----------|
E-----**************--------------|




PreChorus:

(Listen to song for strumming)
Chords: (in order)
  A5   F5   C5   G5
E------------------------------------|
B------------------------------------|
G-----------5------------------------|
D-7----3----5----3-------------------|
A-7----3----3----3-------------------|
E-5----1---------1-------------------|



Chorus:

E----------------------------------|
B----------------------------------|
G-5-5-5-5--------------------------|
D-5-5-5-5-5-5-5-5--3-3-3-3---------|
A-3-3-3-3-5-5-5-5--3-3-3-3---------|
E---------3-3-3-3--1-1-1-1(rep x2)-|


E--------------------------------------|
B--------------------------------------|
G-5-5-5-5------------------------------|
D-5-5-5-5-5-5-5-5--7-7-7-7--3-3-3-3----|
A-3-3-3-3-5-5-5-5--7-7-7-7--3-3-3-3----|
E---------3-3-3-3--5-5-5-5--1-1-1-1----|


Verse:2

(Same as verse 1)


PreChorus:

Chorus: x2

In the outro play Chorus chords over the main solo

Bridge:

E---------------------------------------------------|
B---------------------------------------------------|
G------------------------------------10-------------|
D---7-7-7-7-7--6-6-6--5-5---7-7-7-7--10-------------|
A---7-7-7-7-7--6-6-6--5-5---7-7-7-7--8--------------|
E---5-5-5-5-5--4-4-4--3-3---5-5-5-5-----------------|

===========================================================
                Background Solos
===========================================================
In verse: 2

E--9br-9br-9br-9br-9br-9br-9~--------|
B------------------------------------|
G------------------------------------|
D------------------------------------|
A------------------------------------|
E------------------------------------|

Solo:
E------------------------------------|
B------------------------------------|
G-------5~-7-7/9~--7h9p7/5--5~-------|
D----5h7------------------7----------|
A-5h7--------------------------------|
E------------------------------------|

E----------------------------------------------------------|
B-8-8-8-8--5-5-5-5-------------6p5-6h8~-6p5-6h8~--6p5-6h8~-|
G------------------7-7-7-7p5~------------------------------|
D----------------------------------------------------------|
A----------------------------------------------------------|
E----------------------------------------------------------|
Добавлено: 30.10.2013
Другие материалы по этой песне:
  • Аккорды и текст

Страница создана 30.10.2013
http://primanota.ru/hawk-nelson/joanna-chords.htm
Привет, Гость.
Предлагаем пройти революционный курс по гитаре.
Подарок от PrimaNota.Ru, забирай!