PrimaNota.ru - самый крупный в мире бесплатный архив песенных текстов, аккордов, табулатур и нот


Hawk Nelson - Ancient History - текст песни, таба, видео

Регистрация Запомнить меня
Войти через:  Facebook Google Twitter Vk Yandex Mail.ru

Hawk Nelson - Ancient History - текст песни, таба, видео

Печатать
Просмотров: 103
Lead: Standard Tuning
Intro (No Part)

Verse 1 (right after the first "nothing at all")
|---13\8-----------------------------------------------|
|------------6---8-6-----6---6h8---6---6h8-6-----------|
|--------------5-----5-----5---------5-------5---------|
|------------------------------------------------------|
|------------------------------------------------------|
|------------------------------------------------------|

Bridge (There's no rhyme...)
|--------------------------------------13-12-------|
|--13----13----13----13----15----15----------13-15-|
|-----12----12----12----12----12----12-------------|
|--------------------------------------------------|
|--------------------------------------------------|
|--------------------------------------------------|

Chorus (She don't want anyone other than...)
|--------------------------------------------------5-5----------------|
|--6-6-----6-6-8-8-6-6-----6-6-8-8-6-6-----6-6-8-8-----8-8-6-6-8-8----|
|------5-5-------------5-5-------------5-5----------------------------|
|---------------------------------------------------------------------|
|---------------------------------------------------------------------|
|---------------------------------------------------------------------|

|--------------------------------------------------5-5-6-5---|
|--6-6-----6-6-8-8-6-6-----6-6-8-8-6-6-----6-6-8-8---------8-|
|------5-5-------------5-5-------------5-5-------------------|
|------------------------------------------------------------|
|------------------------------------------------------------|
|------------------------------------------------------------|

|--------------------------------------------------5-5----------------|
|--6-6-----6-6-8-8-6-6-----6-6-8-8-6-6-----6-6-8-8-----8-8-6-6-8-8----|
|------5-5-------------5-5-------------5-5----------------------------|
|---------------------------------------------------------------------|
|---------------------------------------------------------------------|
|---------------------------------------------------------------------|

|---------------------------------------------------------------------------|
|--6-5---5------------------------------------------------------------------|
|------5---7-5-5h7----------------------------------------------------------|
|---------------------------------------------------------------------------|
|-------------------8-------------------------------------------------------|
|---------------------------------------------------------------------------|

Verse 2 (comes in right after "negotiate a one-way deal, nothing from nothing...")
|----13--------------------------13----------------------------------------------------|
|----13-x8-(with effects)--------13-x8-(with effects)----------------------------------|
|----10--------------------------10----------------------------------------------------|
|--------------------------------------------------------------------------------------|
|--------------------------------------------------------------------------------------|
|--------------------------------------------------------------------------------------|

Repeat Bridge

Repeat Chorus


Interlude (tremolo picking)
|--------------------------------------------------------------------------------------|
|----------6-5-6-5----8---6---5--6-5-6-5-----------------------------------------------|
|--5---7-----------7-------------------------------------------------------------------|
|--------------------------------------------------------------------------------------|
|--------------------------------------------------------------------------------------|
|--------------------------------------------------------------------------------------|

Solo
|~----------------------------------8-10-10-10-10-8-8-8------8-------------------------|
|-6-8-8-8-8-6--6/8-10-10-10-10-8--8h10(hold)------------8h10---10----------------------|
|--------------------------------------------------------------------10-0-9-0-7-0-5----|
|--------------------------------------------------------------------------------------|
|--------------------------------------------------------------------------------------|
|--------------------------------------------------------------------------------------|

|--------------------------------------------------------------------------------------|
|---------------6-6--5-5---------------------------------5-----------------------------|
|------------------------7-7--5-5--8~-7~-------8~--------------------------------------|
|--7p5---------------------------------------------------------------------------------|
|------8-5-5h8-------------------------------------------------------------------------|
|--------------------------------------------------------------------------------------|

|--------------------------------------------------5-5-6-5---|
|--6-6-----6-6-8-8-6-6-----6-6-8-8-6-6-----6-6-8-8---------8-|
|------5-5-------------5-5-------------5-5-------------------|
|------------------------------------------------------------|
|------------------------------------------------------------|
|------------------------------------------------------------|

|--------------------------------------------------5-5----------------|
|--6-6-----6-6-8-8-6-6-----6-6-8-8-6-6-----6-6-8-8-----8-8-6-6-8-8----|
|------5-5-------------5-5-------------5-5----------------------------|
|---------------------------------------------------------------------|
|---------------------------------------------------------------------|
|---------------------------------------------------------------------|

|---------------------------------------------------------------------------|
|--6-5---5------------------------------------------------------------------|
|------5---7-5-5h7----------------------------------------------------------|
|---------------------------------------------------------------------------|
|-------------------8-------------------------------------------------------|
|---------------------------------------------------------------------------|

Outro
|--------------------------------------------------5-5----------------|
|--6-6-----6-6-8-8-6-6-----6-6-8-8-6-6-----6-6-8-8-----8-8-6-6-8-8----|
|------5-5-------------5-5-------------5-5----------------------------|x3
|---------------------------------------------------------------------|
|---------------------------------------------------------------------|
|---------------------------------------------------------------------|
(tremolo picking, speed up)
|--------------------------------------------------5-5----------------|
|--6-6-----6-6-8-8-6-6-----6-6-8-8-6-6-----6-6-8-8-----8-8-6-6-8-8----|
|------5-5-------------5-5-------------5-5----------------------------|
|---------------------------------------------------------------------|
|---------------------------------------------------------------------|
|---------------------------------------------------------------------|

---------------------------------------------------------------------------------

Rhythm: Drop D

Intro
|---------------------------------------------------------------|
|---------------------------------------------------------------|
|------------------5-5-5-5-5-5-5-5------------------------------|
|--3-3-3-3-3-3-3-3-5-5-5-5-5-5-5-5-1-1-1-1-1-1-1-3-3-3-3-3-3-3--|
|--3-3-3-3-3-3-3-3-3-3-3-3-3-3-3-3-1-1-1-1-1-1-1-3-3-3-3-3-3-3--|
|--3-3-3-3-3-3-3-3-----------------1-1-1-1-1-1-1-3-3-3-3-3-3-3--|
     * *   * *   * * *   * *   *   * *   * *   * * *   * *   *

Verse 1 (Some girls...)
|---------------------------------------------------------------|
|---------------------------------------------------------------|
|------------------5-5-5-5-5-5-5-5------------------------------|
|--3-3-3-3-3-3-3-3-5-5-5-5-5-5-5-5-1-1-1-1-1-1-1-3-3-3-3-3-3-3--|x4
|--3-3-3-3-3-3-3-3-3-3-3-3-3-3-3-3-1-1-1-1-1-1-1-3-3-3-3-3-3-3--|
|--3-3-3-3-3-3-3-3-----------------1-1-1-1-1-1-1-3-3-3-3-3-3-3--|
     * *   * *   * * *   * *   *   * *   * *   * * *   * *   *

Bridge (There's no rhyme...)
|--------------------------------------------------------------------------------------|
|--------------------------------------------------------------------------------------|
|--------------------------------------------------------------------------------------|
|--7---8-10----------------------------------------------------------------------------|
|--7---8-10----------------------------------------------------------------------------|
|--7---8-10----------------------------------------------------------------------------|

Chorus (She don't want anyone other than...)
|--------------------------------------------------------------------------------------|
|--------------------------------------------------------------------------------------|
|--------------------------------------------------------------------------------------|
|--3---7---8---10---3---7---8---10-10/12\10--------------------------------------------|
|--3---7---8---10---3---7---8---10-10/12\10--------------------------------------------|
|--3---7---8---10---3---7---8---10-10/12\10--------------------------------------------|

|--------------------------------------------------------------------------------------|
|--------------------------------------------------------------------------------------|
|--------------------------------------------------------------------------------------|
|--3---7---8---10---12-10-8-3----------------------------------------------------------|
|--3---7---8---10---12-10-8-3----------------------------------------------------------|
|--3---7---8---10---12-10-8-3----------------------------------------------------------|


Verse 2
|---------------------------------------------------------------|
|---------------------------------------------------------------|
|------------------5-5-5-5-5-5-5-5------------------------------|
|--3-3-3-3-3-3-3-3-5-5-5-5-5-5-5-5-1-1-1-1-1-1-1-3-3-3-3-3-3-3--|
|--3-3-3-3-3-3-3-3-3-3-3-3-3-3-3-3-1-1-1-1-1-1-1-3-3-3-3-3-3-3--|
|--3-3-3-3-3-3-3-3-----------------1-1-1-1-1-1-1-3-3-3-3-3-3-3--|
     * *   * *   * * *   * *   *   * *   * *   * * *   * *   *

|---------------------------------------------------------------|
|---------------------------------------------------------------|
|------------------5-5-5-5-5-5-5-5------------------------------|
|--3-3-3-3-3-3-3-3-5-5-5-5-5-5-5-5------(drum fill)-------------|
|--3-3-3-3-3-3-3-3-3-3-3-3-3-3-3-3------------------------------|
|--3-3-3-3-3-3-3-3----------------------------------------------|
     * *   * *   * * *   * *   *

|---------------------------------------------------------------|
|---------------------------------------------------------------|
|------------------5-5-5-5-5-5-5-5------------------------------|
|--3-3-3-3-3-3-3-3-5-5-5-5-5-5-5-5-1-1-1-1-1-1-1-3-3-3-3-3-3-3--|x2
|--3-3-3-3-3-3-3-3-3-3-3-3-3-3-3-3-1-1-1-1-1-1-1-3-3-3-3-3-3-3--|
|--3-3-3-3-3-3-3-3-----------------1-1-1-1-1-1-1-3-3-3-3-3-3-3--|
     * *   * *   * * *   * *   *   * *   * *   * * *   * *   *



Repeat Bridge
Repeat Chorus



Interlude
|--------------------------------------------------------------------------------------|
|--------------------------------------------------------------------------------------|
|-------------------------------------------------------------10--9--------------------|
|--0-------8-------10-------3---2---12-------8-------10-------10--9--------------------|
|--0-------8-------10-------3---2---12-------8-------10-------8---7--------------------|
|--0-------8-------10-------3---2---12-------8-------10--------------------------------|


Solo
|--------------------------------------------------------------------------------------|
|--------------------------------------------------------------------------------------|
|--------------------------------------------------------------------------------------|
|--3---7---8---10---x2-----------------------------------------------------------------|
|--3---7---8---10----------------------------------------------------------------------|
|--3---7---8---10----------------------------------------------------------------------|

Repeat Bridge

Repeat Chorus

Outro
|--------------------------------------------------------------------------------------|
|--------------------------------------------------------------------------------------|
|--------------------------------------------------------------------------------------|
|--3---7---8---10---x3-----------------------------------------------------------------|
|--3---7---8---10----------------------------------------------------------------------|
|--3---7---8---10----------------------------------------------------------------------|

(Speed up)
|--------------------------------------------------------------------------------------|
|--------------------------------------------------------------------------------------|
|--------------------------------------------------------------------------------------|
|--3---7---8---10---3------------------------------------------------------------------|
|--3---7---8---10---3------------------------------------------------------------------|
|--3---7---8---10---3------------------------------------------------------------------|
Добавлено: 27.01.2014
Другие материалы по этой песне:
  • Аккорды и текст

Страница создана 04.12.2013
http://primanota.ru/hawk-nelson/ancient-history-chords.htm
Привет, Гость.
Предлагаем пройти революционный курс по гитаре.
Подарок от PrimaNota.Ru, забирай!