PrimaNota.ru - самый крупный в мире бесплатный архив песенных текстов, аккордов, табулатур и нот


Hawaii - Break You - таба, видео

Регистрация Запомнить меня
Войти через:  Facebook Google Twitter Vk Yandex Mail.ru

Hawaii - Break You - таба, видео

Печатать
Просмотров: 105
Break You -- Hawaii
Hawaii (2003)

Standard tuning.  This is much easier to play with a capo on
the first fret.  Tab for the intro and riffs is approximate, treat it as
such and have fun with it.

Remove SPAM to e-mail me:

Cory Donnelly
muSPAMsic@onryou.com


Intro Part 1:

e|---3---------------1------------
B|-----4-----1---------1-----1---1
G|-------3---------------1-----1--
D|-1-------------1---------1------
A|---------3----------------------
E|-----------------1--------------

Intro Part 2:

e|---3---------------1---1--------
B|-----4-----1---------1-----1----
G|-------3------------------------
D|-1-------------1---------1-----1
A|---------3----------------------
E|-----------------1--------------

Riff 1:

e|---6---------------------------8p6-8p6-------------------------8p6-8p6-
B|-8---8-8p6-8p6-8p6-8p6-8p6-8p6---------8p6-8p6-8p6-8p6-8p6-8p6---------
G|-----------------------------------------------------------------------
D|-----------------------------------------------------------------------
A|-----------------------------------------------------------------------
E|-----------------------------------------------------------------------

Riff 2:

e|-----------------8p6---------6-----------------8p6-8p6-----6-----
B|-8p6-8p6-8p6-8p6-----8p6-6h8---8p6-8p6-8p6-8p6---------6p8-------
G|-----------------------------------------------------------------
D|-----------------------------------------------------------------
A|-----------------------------------------------------------------
E|-----------------------------------------------------------------

Riff 3:

e|------------------
B|-8p6-8p6-8--------
G|-----------8------
D|-------------8----
A|------------------
E|------------------

Intro:

[Intro Part 1]
[Intro Part 2]
[Intro Part 1]
[Intro Part 1]

D# A# F G#
D# G# F A#

[Riff 1]
[Riff 2]
[Riff 1]
[Riff 2]

D#          A#       F    G#
What do you see...
         D#          G#   F    A#
I have a feeling...
D#       A#          F    G#
Am I the one...
  D#          G#        F      A#        D#     G#
I don't know...  don't want to bring you down
F     A#
Down
D#    G#
Down
F     A#
Down

D#         A#    F        G#
   You know I'll try...
D#     G#  F              A#
   But I always seem to...
D#      A#      F         G#
   And now that I see...
D#      G#     F          A#
   I think I should...

[Diddle with Intro Parts and Riffs]

D# A# F G#
D# G# F A#
D# A# F G#
D# G# F A#

D#         A#    F        G#
   You know I'll try...
D#     G#  F              A#
   But I always seem to...
D#      A#      F         G#
   And now that I see...
D#      G#     F          A#    D#
   I think I should just stay away
     
Добавлено: 18.08.2013
Вам также может быть интересно:
Другие материалы по этой песне:
  • Аккорды и текст

Страница создана 18.08.2013
http://primanota.ru/hawaii/break-you-chords.htm
Привет, Гость.
Предлагаем пройти революционный курс по гитаре.
Подарок от PrimaNota.Ru, забирай!