PrimaNota.ru - самый крупный в мире бесплатный архив песенных текстов, аккордов, табулатур и нот


Havok - Worse Than War - таба, видео

Регистрация Запомнить меня
Войти через:  Facebook Google Twitter Vk Yandex Mail.ru

Havok - Worse Than War - таба, видео

Печатать
Просмотров: 197
Уроки эстрадного вокала в Санкт-Петербурге
========================= HAVOK - WORSE THAN WAR GUITAR TAB===========================
=====================================BY KADIKI========================================
Tuning : Half-step down :: D# G# C# F# A# D#

RIFF NO#01
e--------------------------------------------------|
B--------------------------------------------------|
G-----2---1---0---0--1-----------------------------|
D-------------------------2------------------------|
A----------------------------3---------------------|
E-------------------------------3--4--1--0---------|

RIFF NO#02
e---------------------------------------------------|
B---------------------------------------------------|
G-----2---1---0---0--1------------------------------|
D-------------------------2-------------------------|
A----------------------------3----------------------|
E-------------------------------3--4--1--3--0-------|

RIFF NO#03
e-----------------------------------------------------|
B--------------------------------0--1-----------------|
G-----2---1---0---0--1-----------------2--------------|
D-------------------------2---------------3-----------|
A----------------------------3------------------------|
E----------------------------------------------0------|

RIFF NO#04
e-----------------------------------------------------|
B-----------------------------------------------------|
G-------------9--10--9--9----8----7----4--------------|
D----------------------------9----8----5----2---------|
A-------------7---8--7--7----7----6----3----2---------|
E----------------------------7----6----3----0---------|

RIFF NO#05
e-----------------------------------------------------------|
B-------------------------------12---11---------------------|
G-------------9--10--9--9-----------------12----------------|
D--------------------------------9----8---------------------|
A-------------7---8--7--7-----------------10----------------|
E-----------------------------------------------------------|

RIFF NO#06
e------------------------------------------------------------|
B-------------------------------15----14---------------------|
G-------------9--10--9--12-----------------15----------------|
D-------------------------------12----11---------------------|
A-------------7---8--7--10-----------------13----------------|
E------------------------------------------------------------|

RIFF NO#07
e-----------------------------------------------------------------------|
B-----------------------------------------------------------------------|
G-----------------------------------------------------------------------|
D-----2--2--2--6--------5--------6--------3-----3-----------------------|
A-----2--2--2--6--------5--------6--------3-----3-----------------------|
E-----0--0--0--4--0--0--3--0--0--4--0--0--1--0--1--0--------------------|

RIFF NO#08
e----------------------------------------------------------------------------------|
B----------------------------------------------------------------------------------|
G----------------------------------------------------------------------------------|
D-----3----6-------------6--------5--------6--------3-----3------------------------|
A-----3----6-------------6--------5--------6--------3-----3------------------------|
E-----1----4----0--0--0--4--0--0--3--0--0--4--0--0--1--0--1--0---------------------|

RIFF NO#09
e-------------------------------------------------------------------------------|
B-------------------------------------------------------------------------------|
G---------------5----8----7-----------------------------------------------------|
D-----3----6----5----8----7-----------------------------------------------------|
A-----3----6----3----6----5-----------------------------------------------------|
E-----1----4---------------------0--0-------------------------------------------|

RIFF NO#10
e--------------------------------------------------------------------------------------------|
B----------------------------------------15----14----13----12----11----10----9-----8---------|
G------------9----10---9----12---------------------------------------------------------------|
D----------------------------------------12----11----10-----9-----8-----7----6-----5---------|
A------------7----8----7----10---------------------------------------------------------------|
E--------------------------------------------------------------------------------------------|

RIFF NO#11
e-----------------------------------|
B-----------------------------------|
G-----------------------------------|
D----------------------9--8---------|
A----------------------7--6---------|
E-----0----0-0-0-0------------------|

RIFF NO#12
e------------------------------------------------------------------------|
B------------------------------------------------------------------------|
G------------------------------------------------------------------------|
D------------------------8-8-7-7-8-8-------------------------------------|
A-------7-7-7-7-7-7-------------------7----------------------------------|
E------------------------------------------------------------------------|

RIFF NO#13
e------------------------------------------------------------------------|
B------------------------------------------------------------------------|
G------------------------------------------------------------------------|
D-----------------------------------20-20-19-19-20-20--------------------|
A-------19-19-19-19-19-19------------------------------19----------------|
E------------------------------------------------------------------------|


========================= HAVOK - WORSE THAN WAR GUITAR TAB===========================
=====================================BY KADIKI========================================
Добавлено: 18.05.2015
Другие материалы по этой песне:
  • Аккорды и текст

Страница создана 18.05.2015
http://primanota.ru/havok/worse-than-war-chords.htm
Привет, Гость.
Предлагаем пройти революционный курс по гитаре.
Подарок от PrimaNota.Ru, забирай!