PrimaNota.ru - самый крупный в мире бесплатный архив песенных текстов, аккордов, табулатур и нот


Haven - Beautiful Thing - текст песни, таба, видео

Регистрация Запомнить меня
Войти через:  Facebook Google Twitter Vk Yandex Mail.ru

Haven - Beautiful Thing - текст песни, таба, видео

Печатать
Просмотров: 137
    A                     C           G  
  
e|--0---0---0-0-0-0---0---0---0---0-0-2---2-2-2---|
b|--2---2---2-2-2-3---5---1---1---1-1-2---2-2-2---|
g|--2---2---2-2-2—2---2---0---0---0-0-0---0-0-0---|
d|--2---2---2—2-2-2---2---2---2---2-2-0---0-0-0---|                     
a|--0---0---0-0-0-0---0---3---3---3-3-2---2-2-2---|
e|------------------------0---0---0-0-3---3-3-0---| 

    A                                 G                   

e|--0---0---0-0-0-0---0---1---1---1-1-2---2-2-2---|
b|--2---2---2-2-2-3---5---1---1---1-1-2---2-2-2---|
g|--2---2---2-2-2—2---2---2---2---2-2-0---0-0-0---|
d|--2---2---2—2-2-2---2---0---0---0-0-0---0-0-0---|                     
a|--0---0---0-0-0-0---0---0---0---0-0-2---2-2-2---|
e|------------------------------------3---3-3-0---| 

Ok is my first tab ever and this is only a small part of the song but no 1 else has done it yet!!!
If n e 1 else knows how it really goes then please let me know

Williammario1984@hotmail.co.uk
Добавлено: 30.03.2012
Другие материалы по этой песне:
  • Аккорды и текст

Страница создана 24.02.2012
http://primanota.ru/haven/beautiful-thing-chords.htm
Привет, Гость.
Предлагаем пройти революционный курс по гитаре.
Подарок от PrimaNota.Ru, забирай!