PrimaNota.ru - самый крупный в мире бесплатный архив песенных текстов, аккордов, табулатур и нот


Have Mercy - My Oldest Friend - таба, видео

Регистрация Запомнить меня
Войти через:  Facebook Google Twitter Vk Yandex Mail.ru

Have Mercy - My Oldest Friend - таба, видео

Печатать
Просмотров: 89
This is the first time I've ever tabbed something out by ear, to me it sounds accurate,
played along with the
song sounds nearly perfect

Guitar 1:

Part 1:

E|-------------------------------------------------|
B|----2--------------2----3--------------3----3----|
G|-------------2--------------------2---------2----|
D|--------4-------------------4---------------0----|
A|----0-------------------2-------------------0----|
E|-------------------------------------------------|


Part 2:

E|------------------------------------|
B|----10---------7---------3----------|
G|----------9--------------------4----|
D|--------------------0---------------|
A|----0-------------------------------|
E|------------------------------------|
Добавлено: 26.07.2015
Другие материалы по этой песне:
  • Аккорды и текст

Страница создана 26.07.2015
http://primanota.ru/have-mercy/my-oldest-friend-chords.htm
Привет, Гость.
Предлагаем пройти революционный курс по гитаре.
Подарок от PrimaNota.Ru, забирай!