PrimaNota.ru - самый крупный в мире бесплатный архив песенных текстов, аккордов, табулатур и нот


Have Heart - Watch Me Sink - таба, видео

Регистрация Запомнить меня
Войти через:  Facebook Google Twitter Vk Yandex Mail.ru

Have Heart - Watch Me Sink - таба, видео

Печатать
Просмотров: 138
-----------------------------------------------------------------------------
                             WATCH ME SINK - Have Heart
-----------------------------------------------------------------------------
Tabbed by: Mean Mr Mustard
Email: Gotchristo@comcast.net

Tuning: Standard

Maybe my favorite Have Heart song, so figured that I would try to tab it out. Pretty
easy overall, there may be a few things wrong, but for the most part, its okay.

 INTRO                            x4
e|----------------------------------|-----------------|
B|----------------------------------|-----------------|
G|-9-----9-----9-----9-10---9-----9-|-~~~~~~~~--------|
D|-9-----9-----9-----9-10---9-----9-|-~~~~~~~~--------|
A|-7-----7-----7-----7-8----7-----7-|-~~~~~~~~--------|
E|---0-0---------0-0----------0-0---|-----------------|
 |
e|----------------------------------|-----------------|
B|----------------------------------|-----------------|
G|----------------------------------|-----------------|
D|-2------------------------2-2-2-2-|-2-2-2-2-2-2-2-2-|
A|-2------------------------2-2-2-2-|-2-2-2-2-2-2-2-2-|
E|-0------------------------0-0-0-0-|-0-0-0-0-0-0-0-0-|
                          pm. . . . . . . . . . . . .(on 4th time through)

 VERSE
e|----------------------------------|-----------------|
B|----------------------------------|-----------------|
G|-9-----9-----9-----9-10---9-----9-|-~~~~~~~~--------|
D|-9-----9-----9-----9-10---9-----9-|-~~~~~~~~--------|
A|-7-----7-----7-----7-8----7-----7-|-~~~~~~~~--------|
E|---0-0---------0-0----------0-0---|-----------------|
 |
e|----------------------------------|-----------------------|
B|----------------------------------|-----------------------|
G|-9-----9-----9-----9-10---9-----9-|-14-14-14-12-12-10-10--|
D|-9-----9-----9-----9-10---9-----9-|-x--x--x--x--x--x--x---|
A|-7-----7-----7-----7-8----7-----7-|-12-12-12-10-10-8--8---|
E|---0-0---------0-0----------0-0---|-----------------------|
                                    (On 2nd and 4th time only)

 POST VERSE MADNESS (both guitars)
e|---------------------------------|
B|---------------------------------|
G|---------------------------------|
D|---------------------------------|
A|-2-2-2-2-2-2-2-2-2-2-2-2-2-2-2-2-|
E|-0-0-0-0-0-0-0-0-0-0-0-0-0-0-0-0-|
   pm. . . . . . . . . . . . . . .

 "LIKE A STONE" (x2)
e|----------------------------------|---------------------------------|
B|----------------------------------|---------------------------------|
G|-------------------------9-101010-|---------------------------------|
D|-2-----------------------9-101010-|-2-------------------------------|
A|-2-2-2-2-2-2-2-2-2-2-2-2-7-8-8-8--|-2-2-2-2-2-2-2-2-2-2-2-2-2-2-2-2-|
E|-0-0-0-0-0-0-0-0-0-0-0-0----------|-0-0-0-0-0-0-0-0-0-0-0-0-0-0-0-0-|
     pm. . . . . . . . . .              pm. . . . . . . . . . . . . .


PRE-VERSE   VERSE (x4)
e|---------|---------------------------|
B|---------|---------------------------|
G|---------|-9--------------5--5--5--5-|
D|-2-------|-9--------------5--5--5--5-|
A|-2-------|-7-2--2--2--2-2-3--3--3--3-|
E|-0-------|---0--0--0--0-0------------|
               pm .  .  . .

  INTERLUDE  (x4)
e|----------------------------------|
B|----------------------------------|
G|-9-----10----9-----5-----5-7-7-7--|
D|-9-----10----9-----5-----5-7-7-7--|
A|-7-----8-----7-----3-----3-5-5-5--|
E|---0-0---0-0---0-0---0-0----------|
     pm.   . .   . .   . .

SLOWER VERSE (x2)
e|--------------------------|
B|--------------------------|
G|-9-------7------4------5--|
D|-9-------7------4------5--|
A|-7-------5------2------3--|
E|-0------------------------|
 |
e|--------------------------|
B|--------------------------|
G|-12------10------4-----5--|
D|-x-------x-------x-----x--|
A|-10------8-------2-----3--|
E|--------------------------|

Then VERSE

Then INTERLUDE

Then SLOWER VERSE


BREAK
  "get me the fuck out of a world that's doing it's best
  night and day to make me...every...body...else."
e|--------------------------------------------|
B|--------------------------------------------|
G|--------------------------------------------|
D|-2------------------------------------------|
A|-2------------------------------------------|
E|-0------------------------------------------|

  (bass riff underneath)
G|------------------------------------------------------|
D|------------------------------------------------------|
A|-5-7-7---7-----8--8-10--10-10--3--3-3-3--5--5-3--3-3--|
E|-------0---0-0----------------------------------------|



"GET ME OUT"
e|-----------------------------------------|
B|-----------------------------------------|
G|-----------------------------------------|
D|-2-----------------------2-2-2-2-2-2-2-2-|
A|-2-----------------------2-2-2-2-2-2-2-2-|
E|-0-----------------------0-0-0-0-0-0-0-0-|
                           pm. . . . . . .

 OUTRO
e|---------------------------------|--|---------------------------------|
B|---------------------------------|--|---------------------------------|
G|-9-----------------------------7-|x2|-5-----------------------------7-|
D|-9-------2-------2-------2-----7-|--|-5-5-5-5-5-5-5-5-5-5-5-5-5-5-5-7-|
A|-7-2-2-2-2-2-2-2-2-2-2-2-2-2-2-5-|--|-3-3-3-3-3-3-3-3-3-3-3-3-3-3-3-5-|
E|---0-0-0-0-0-0-0-0-0-0-0-0-0-0---|--|---------------------------------|
      pm .   . . .   . . .   . .          . . . . . . . . . . . . . .

  "REMEMBER WHAT LOVE IS"
e|---------------------------------|---------------------|
B|---------------------------------|---------------------|
G|-9-------------------------------|-9~~~~~~~~~~~~~~~~~~~|
D|-9-------2-------2-------2-------|-9~~~~~~~~~~~~~~~~~~~|
A|-7-2-2-2-2-2-2-2-2-2-2-2-2-2-2-2-|-7~~~~~~~~~~~~~~~~~~~|
E|---0-0-0-0-0-0-0-0-0-0-0-0-0-0-0-|-0~~~~~~~~~~~~~~~~~~~|
     pm. .   . . .   . . .   . . .
Добавлено: 03.07.2012
Другие материалы по этой песне:
  • Аккорды и текст

Страница создана 03.07.2012
http://primanota.ru/have-heart/watch-me-sink-chords.htm
Привет, Гость.
Предлагаем пройти революционный курс по гитаре.
Подарок от PrimaNota.Ru, забирай!