PrimaNota.ru - самый крупный в мире бесплатный архив песенных текстов, аккордов, табулатур и нот


Have Heart - Watch Me Rise - бас-таба, видео

Регистрация Запомнить меня
Войти через:  Facebook Google Twitter Vk Yandex Mail.ru

Have Heart - Watch Me Rise - бас-таба, видео

Печатать
Просмотров: 110
This is the tab I figured out on Watch me Rise by Have Heart.

Might not be 100% but sounds good when you play it along..

Suggestions/improvements: Timbeek6@hotmail.com




G----------------------------|         Let the F# ring the last time
D----------------------------|
A-------3~-------------------|
E200~-20---33333555-22222222-|           4X


G----------------------------|
D7~~-----7~~-----5~~---------|
A9~~-----5~~-----3~~---------|
E0~~~------------------------|



G--------------------------------|
D--------------------------------|
A5/7----5/777--33333333-22222222-|
E0--00---------------------------|

G--------------------------------|
D--------------33333333-22222222-|
A5/7----5/777--------------------|
E0--00---------------------------|

G--------------------------------------|
D--------------------------------------|
A5/7------5/7777777--33333333-22222222-|
E0--000000-----------------------------|


G---------------------------------------|
D--------------------33333333-22222222~-|
A5/7------5/7777777---------------------|
E0--000000------------------------------|



-BORN THIS WAY, DIE THIS WAY-

G---------------------------------------------|
D---------------------------------------------|   (Listen for timing here)
A--------------5--3---------------------------|
E0000000000000--00---------------------     1-|4X



G0------------------------|
D9~~~~~~~~7~~~~5----------|
A7~~~~~~~~5~~~~3----------|   2X Then break and another 2.
E0~~~~~~~~----------------|      Skip the last chord last time



G-------------------------|
D-------------------------|
A-------------------------|
E5-5555-5555-5555-5555----|   Listen for timing again

That should be it, as I said, probably not 100% but sounds fine!
Добавлено: 30.06.2012
Другие материалы по этой песне:

Страница создана 05.06.2012
http://primanota.ru/have-heart/watch-me-rise-chords.htm
Привет, Гость.
Предлагаем пройти революционный курс по гитаре.
Подарок от PrimaNota.Ru, забирай!