PrimaNota.ru - самый крупный в мире бесплатный архив песенных текстов, аккордов, табулатур и нот


Have Heart - Old Man Ii Last Words And Lessons Learned - таба, видео

Регистрация Запомнить меня
Войти через:  Facebook Google Twitter Vk Yandex Mail.ru

Have Heart - Old Man Ii Last Words And Lessons Learned - таба, видео

Печатать
Просмотров: 103
-----------------------------------------------------------------------------
        OLD MAN II (LAST WORDS AND LESSONS LEARNED) - Have Heart
-----------------------------------------------------------------------------
Tabbed by:Mean Mr Mustard
Email: Gotchristo@comcast.net

Tuning: Standard

Another good Have Heart song. It should be all good, except for that one clean section 
that comes up later in the song.

 FINGER-PICKED INTRO (listen for timing)
e|-------------10h7-8h7h0--------------------------------------|
B|-5-----7----------------8----8\---5-----7----------------8---|
G|---5-----7--------------------------5-----7-----------9------|
D|-----5-----7--------------------------5-----7-------9--------|
A|-3-----5----------------7----7\---3-----5-----5---7----------|
E|-------------0----------------------------------0------------|


  INTRO (x2) (both guitars)
e|--------------------------------------------------------------------|
B|--------------------------------------------------------------------|
G|-9--10-9--7--9------------------------------------------------------|
D|-9--10-9--7--9------------------------------------------------------|
A|-7--8--7--5--7--2-2-2-2-2---2-2---2-2---2-2---2-2---2-2---2-2---2-2-|
E|----------------0-0-0-0-0---0-0---0-0---0-0---0-0---0-0---0-0---0-0-|
                  pm. . . .   . .   . .   . .   . .   . .   . .   . .

  (x2)
e|--------------------------------------------------------------------|
B|--------------------------------------------------------------------|
G|-9--10-9--7--9------------------------------------------------------|
D|-9--10-9--7--9------------------------------------------------------|
A|-7--8--7--5--7--2-2-2-2-2---2-2---2-2---2-2---2-2---2-2---2-2---2-2-|
E|----------------0-0-0-0-0---0-0---0-0---0-0---0-0---0-0---0-0---0-0-|
 |                pm. . . .   . .   . .   . .   . .   . .   . .   . .
 |
e|--------------------------------------------------------------------|
B|--------------------------------------------------------------------|
G|-9--10-9--7--9------------------------------------------------------|
D|-9--10-9--7--9------------------------------5--------3--------------|
A|-7--8--7--5--7------------------------------5--------3--------------|
E|-------------0------------------------------3--------1--------------|



  VERSE (x2) (both guitars)
e|--------------------------------------------------------------------|
B|--------------------------------------------------------------------|
G|-9--10-9--7--9------------------------------------------------------|
D|-9--10-9--7--9------------------------------------------------------|
A|-7--8--7--5--7--2-2-2-2-2---2-2---2-2---2-2---2-2---2-2---2-2---2-2-|
E|----------------0-0-0-0-0---0-0---0-0---0-0---0-0---0-0---0-0---0-0-|
                  pm. . . .   . .   . .   . .   . .   . .   . .   . .

  POST VERSE
e|-----------------------------------------|
B|-----------------------------------------|
G|-9--10-9--7--9---------------------------|
D|-9--10-9--7--9------------2--------------|
A|-7--8--7--5--7------------2--------------|
E|-------------0------------0--------------|


CLEAN PART (Cuoldn't really figure this out too well, sorry)
e|---------------------------|---------------------------|
B|---------3-----3---------3-|---------3-----3---------3-|
G|---0---0---0------0---0----|---0---0---0------0---0----|
D|-5---5-------5------5------|-0---0-------0------0------|
A|---------------------------|---------------------------|
E|---------------------------|---------------------------|

e|--------------------------------|--------------------------------|
B|--------------------------------|--------------------------------|
G|---------2h0------------2h0-----|---------2h0------------2h0-----|
D|--------------------------------|-0h2-2-2-----2-2--0h2-2-----2---|
A|-3-3-3-3-----3-3--3-3-3----3-3--|--------------------------------|
E|--------------------------------|--------------------------------|


CHORUS
e|-----------------------------------------------------------------------0~|
B|-------------------------------------------------------------------------|
G|----------9-------------7-------------45----------------------------4h5~~|
D|----------9-------------7-------------45----2-----------5-5-5-4-4-4------|
A|-2-2-2-2--7-----2-2-2-2-5-----2-2-2-2-23----2-2-2-5-5-5-3-3-3-2-2-2------|
E|-0-0-0-0--------0-0-0-0-------0-0-0-0-------0-0-0-3-3-3------------------|
   pm. . .        . . . .       . . . .         pm. . . . . . . . . .

e|------------------------------------------------------------------------|
B|------------------------------------------------------------------------|
G|----------9--------------7--------------5-------------------------------|
D|----------9--------------7--------------5-------2~~~~~~~~~~~~~~~~~~~~~~~|
A|-2-2-2-2--7------2-2-2-2-5------2-2-2-2-3-------2~~~~~~~~~~~~~~~~~~~~~~~|
E|-0-0-0-0---------0-0-0-0--------0-0-0-0---------0~~~~~~~~~~~~~~~~~~~~~~~|
   pm. . .         . . . .        . . . .


  POST-CHORUS
e|--------------------------------------------------------------------------|
B|--------------------------------------------------------------------------|
G|9-9--9-9--9-9--9-9--9-9--9-9--9-9--9-9--1111-1111-1111-1111-1111-1111-1111|
D|x-x--x-x--x-x--x-x--x-x--x-x--x-x--x-x--x-x--x-x--x-x--x-x--x-x--x-x--x-x-|
A|7-7--7-7--7-7--7-7--7-7--7-7--7-7--7-7--9-9--9-9--9-9--9-9--9-9--9-9--9-9-|
E|--------------------------------------------------------------------------|
 |
e|--------------------------------------------------------------------------|
B|--------------------------------------------------------------------------|
G|9-9--9-9--9-9--9-9--9-9--9-9--9-9--9-9--7-7--7-7--7-7--7-7--7-7--7-7--7-7-|
D|9-9--9-9--9-9--9-9--9-9--9-9--9-9--9-9--7-7--7-7--7-7--7-7--7-7--7-7--7-7-|
A|7-7--7-7--7-7--7-7--7-7--7-7--7-7--7-7--5-5--5-5--5-5--5-5--5-5--5-5--5-5-|
E|--------------------------------------------------------------------------|

e|------------------------------------------------------------------------|
B|------------------------------------------------------------------------|
G|1212-1212-1212-1212-1212-1212-1212-1212-----------------9-9-9-9-9-9-9-9-|
D|x-x--x-x--x-x--x-x--x-x--x-x--x-x--x-x------------------x-x-x-x-x-x-x-x-|
A|1010-1010-1010-1010-1010-1010-1010-1010-7-7-7-7-7-7-7-7-7-7-7-7-7-7-7-7-|
E|------------------------------------------------------------------------|
 |                                        pm. . . . . . . grad. release
 |
e|------------------------------------------------------------------------|
B|------------------------------------------------------------------------|
G|-5-5--5-5--5-5--5-5--5-5--5-5--5-5--5-5---------------------------------|
D|-5-5--5-5--5-5--5-5--5-5--5-5--5-5--5-5-----------------2-2-2-2-2-2-2-2-|
A|-3-3--3-3--3-3--3-3--3-3--3-3--3-3--3-3-2-2-2-2-2-2-2-2-2-2-2-2-2-2-2-2-|
E|----------------------------------------0-0-0-0-0-0-0-0-0-0-0-0-0-0-0-0-|
                                          pm. . . . . . . grad. release


 OUTRO (both guitars)  (x4?)                 End.
e|------------------------------------------|-----|
B|------------------------------------------|-----|
G|-9-9---9-9-9---9-9-9---9-9-9---9-9-9---9--|-9-9-|
D|-9-9---9-9-9---9-9-9---9-9-9---9-9-9---9--|-9-9-|
A|-7-7---7-7-7---7-7-7---7-7-7---7-7-7---7--|-7-7-|
E|-0-0---0-0-0---0-0-0---0-0-0---0-0-0---0--|-0-0-|
   pm.   . . .   . . .   . . .   . . .   .    . .
Добавлено: 02.07.2012
Другие материалы по этой песне:

Страница создана 28.04.2012
http://primanota.ru/have-heart/old-man-ii-last-words-and-lessons-learned-chords.htm
Привет, Гость.
Предлагаем пройти революционный курс по гитаре.
Подарок от PrimaNota.Ru, забирай!