PrimaNota.ru - самый крупный в мире бесплатный архив песенных текстов, аккордов, табулатур и нот


Have A Nice Life - Waiting For Black Metal Records To Come In The Mail - таба, видео

Регистрация Запомнить меня
Войти через:  Facebook Google Twitter Vk Yandex Mail.ru

Have A Nice Life - Waiting For Black Metal Records To Come In The Mail - таба, видео

Печатать
Просмотров: 83
This is the amazing song by Have A 
Nice Life that for some reason 
didn't have a tab up! It's a fairly
basic song

Verse
e|---------------------------------------------------------------------------|
B|---------------------------------------------------------------------------|
G|-----------4---4-----------4---4----------------4--------------------------|
D|-2-2-2-2-2-2-2-2-2-2-2-2-2-2-2-2--5-5-5-5-5-5-5---8-8-8-8-8-9-8------------|
A|-0-0-0-0-0-0-0-0-0-0-0-0-0-0-0-0--3-3-3-3-3-3-3---6-6-6-6-6-6-6------------|
E|---------------------------------------------------------------------------|

Chorus
e|---------------------------------------------------------------------------|
B|---------------------------------------------------------------------------|
G|---------------------------------------------------------------------------|
D|---------------------------------------------------------------------------|
A|-7-7-7-7-7-7-7-9-9-9-9-9-9-9-7-7-7-7-7-7-7-5-5-5-5-5-5-5-------------------|
E|-5-5-5-5-5-5-5-7-7-7-7-7-7-7-5-5-5-5-5-5-5-3-3-3-3-3-3-3-------------------|

e|---------------------------------------------------------------------------|
B|---------------------------------------------------------------------------|
G|---------------------------------------------------------------------------|
D|---------------------------------------------------------------------------|
A|-7-7-7-7-7-7-7-9-9-9-9-9-9-9-7-7-7-7-7-7-7-7-7-7-7-7-7-7-------------------|
E|-5-5-5-5-5-5-5-7-7-7-7-7-7-7-5-5-5-5-5-5-5-5-5-5-5-5-5-5-------------------|


4.01 (Just after the second chorus)
e|---------------------------------------------------------------------------|
B|---------------------------------------------------------------------------|
G|---------------------------------------------------------------------------|
D|---------------------------------------------------------------------------|
A|-5---0---------------------------------------------------------------------|
E|-3---0---------------------------------------------------------------------|

4.08 - 6.17
e|---------------------------------------------------------------------------|
B|---------------------------------------------------------------------------|
G|---------------------------------------------------------------------------|
D|---------------------------------------------------------------------------|
A|-7--7-7-7-7-7-7--7-7-7-7-7-7-----------------------------------------------|
E|-5--5-5-5-5-5-5--5-5-5-5-5-5-----------------------------------------------|



************************************

| /   slide up
| \   slide down
| h   hammer-on
| p   pull-off
| ~   vibrato
| +   harmonic
| x   Mute note
| b   Bend
| pb  Pre-bend
| br  Bend release
| pbr Pre-bend release
| brb Bend release bend

************************************
Добавлено: 13.12.2015
Вам также может быть интересно:
Другие материалы по этой песне:
  • Аккорды и текст

Страница создана 13.12.2015
http://primanota.ru/have-a-nice-life/waiting-for-black-metal-records-to-come-in-mail-chords.htm
Привет, Гость.
Предлагаем пройти революционный курс по гитаре.
Подарок от PrimaNota.Ru, забирай!