PrimaNota.ru - самый крупный в мире бесплатный архив песенных текстов, аккордов, табулатур и нот


Have A Nice Life - Defenestration Song - таба, видео

Регистрация Запомнить меня
Войти через:  Facebook Google Twitter Vk Yandex Mail.ru

Have A Nice Life - Defenestration Song - таба, видео

Печатать
Просмотров: 106
Уроки эстрадного вокала в Санкт-Петербурге
Artist: Have a Nice Life
Song: Defenestration
Album: The Unnatural World
Tabbed by Tom

Main Riff

E:|7-7-7-7-7-7-7-7-5-5-5-3-3-3-3-3-3-3-3-2-2-2-0-0-0-0-0-0-0-0-3-3-3-3-3-3-3-3-5-5-5|
A:|---------------------------------------------------------------------------------|
D:|---------------------------------------------------------------------------------|
G:|---------------------------------------------------------------------------------|
B:|---------------------------------------------------------------------------------|
E:|---------------------------------------------------------------------------------|

"Get off my back..."

E:|-----------------------------------------------------------------|
A:|----------------------------------------------------------------0|
D:|----------------------------------------------------------------2|
G:|5----4----2----4--0----2-----4--5----4----2----4--0----2-----4--2|
B:|-----------------------------------------------------------------|
E:|-----------------------------------------------------------------|

Reverby chords

E:|-----------------------------------------------------|
A:|-----3-3-3-0-----2-2-2-0-----3-3-3-0-----2-2-2-0-----|
D:|-----5-5-5-2-----4-4-4-2-----5-5-5-2-----4-4-4-2-----|
G:|-----5-5-5-2-----4-4-4-2-----5-5-5-2-----4-4-4-2-----|
B:|-----------------------------------------------------|
E:|-----------------------------------------------------|

"Woo!" {

        Lead: 

        E:|---------------------------------------------------------------|
        A:|---------------------------------------------------------------|
        D:|---------------------------------------------------------------|
        G:|---------------------------------------------------------------|
        B:|6-5-6-5-6-5-6-5-6-5-6-5-6-5-6-5-6-5-6-5-6-5-6-5-6-5-6-5-6-5-6-5|
        E:|---------------------------------------------------------------|

        Rhythm:

        E:|---------------------------------------------------------------|
        A:|0-0-0-0-0-0-0-0-0-0-0-0-0-0-0-0-3-3-3-3-3-3-3-3-2-2-2-2-2-2-2-2|
        D:|2-2-2-2-2-2-2-2-2-2-2-2-2-2-2-2-5-5-5-5-5-5-5-5-4-4-4-4-4-4-4-4|
        G:|2-2-2-2-2-2-2-2-2-2-2-2-2-2-2-2-5-5-5-5-5-5-5-5-4-4-4-4-4-4-4-4|
        B:|---------------------------------------------------------------|
        E:|---------------------------------------------------------------|

        E:|--------------------------------3-3-3-3-3-3-3-3----------------|
        A:|0-0-0-0-0-0-0-0-0-0-0-0-0-0-0-0-5-5-5-5-5-5-5-5-0-0-0-0-0-0-0-0|
        D:|2-2-2-2-2-2-2-2-2-2-2-2-2-2-2-2-5-5-5-5-5-5-5-5-2-2-2-2-2-2-2-2|
        G:|2-2-2-2-2-2-2-2-2-2-2-2-2-2-2-2-----------------2-2-2-2-2-2-2-2|
        B:|---------------------------------------------------------------|
        E:|---------------------------------------------------------------|

}

Another bit

E:|---------------------------------------------------------------|
A:|---------------------------------------------------------------|
D:|----------7-7-7-5-5-5-2-2-2-0-0-----------7-7-7-5-5-5-5-5-7-7-7|
G:|5-7-5-7-5-----------------------5-7-5-7-5----------------------|
B:|---------------------------------------------------------------|
E:|---------------------------------------------------------------|

Order:

Main Riff x6
"Get off my back" x1
Reverby chords x1
"Woo!" x4
"Get off my back" x1
Another bit x4 (play an A5 at the end of the final repeat of this to flow into the next section)
Reverby chords x6 

I find that tremolo picking "Get off my back" with distortion on makes a passable impression of the reverb 
on the album. The timing's pretty easy to figure out after a couple of listens. Ganbatte, anon-san.
Добавлено: 19.06.2016
Вам также может быть интересно:
Другие материалы по этой песне:
  • Аккорды и текст

Страница создана 19.06.2016
http://primanota.ru/have-a-nice-life/defenestration-song-chords.htm
Привет, Гость.
Предлагаем пройти революционный курс по гитаре.
Подарок от PrimaNota.Ru, забирай!