PrimaNota.ru - самый крупный в мире бесплатный архив песенных текстов, аккордов, табулатур и нот


Hauptkampflinie - Jose Antonio - аккорды и текст, видео

Регистрация Запомнить меня
Войти через:  Facebook Google Twitter Vk Yandex Mail.ru

Hauptkampflinie - Jose Antonio - аккорды и текст, видео

Печатать
Просмотров: 107
Уроки эстрадного вокала в Санкт-Петербурге
Jose Antonio
Hauptkampflinie
RIFF (VERSE/INTERLUDE)
   F#m            A              Bm             F#m
e|---------------------------------------------------------------------------|
B|---2--------------2--------------3--------------2--------------------------|
G|-----2--------------2--------------4--------------2------------------------|
D|-------4--(x4)--------2--(x4)--------4--(x4)--------4--(x4)----------------|
A|----------------0--------------2-------------------------------------------|
E|-2--------------------------------------------2----------------------------|

CHORUS/OUTRO
   Abm            A              Abm            F#m
e|---4--------------5--------------4--------------2--------------------------|
B|-----4--------------5--------------4--------------2------------------------|
G|-------4--(x2)--------6--(x2)--------4--(x2)--------2--(x2)----------------|
D|-6--------------7--------------6--------------4----------------------------|
A|---------------------------------------------------------------------------|
E|---------------------------------------------------------------------------|

INTRO
(F#m  A  Bm F#m) x 3


VERSE
F#m                            A
Oben in den Bergen von Madrid, steht ein Denkmal, das man schon von weitem sieh dort
Bm                                  F#m
liegen die Toten des Bürgerkrieges, zur letzten Ruh. 
       F#m                       A       
In der Totenhalle, Fackelschein, stehen zwei Worte, eingemeißelt in Stein:
Bm                          F#m 
José Antonio, dort liegst du.


INTERLUDE
(F#m  A  Bm F#m) x 2

F#m                                        A                                                      
Du warst der Gründer einer Ideologie, das war es was man dir nicht verzieh.
   Bm                                      F#m
Du würdest verhaftet, verurteilt und exekutiert. 
    F#m                                 A
Die roten Horden verwüsteten das Land, Unschuldige stellte man an die nächste Wand. 
      Bm                                          F#m
Nicht Vernunft, sonder der Wahnsinn hat damals regiert.

CHORUS

Abm        A 
José    Antonio 
Abm         F#m
Primo de Rivera,
Abm               A                            
du warst der Revolution
Abm           F#m    
allerhellste Licht  
    Abm                 A
und sind auch schon so viele 
Abm       F#m
Jahre vergangen, 
Abm        A            Abm           F#m
José    Antonio, wir vergessen  dich nicht

INTERLUDE
(F#m  A  Bm F#m) x 2

F#m                         A
Als der rote Terror begann, standest du auf und zogst das Blauhemd an
      Bm                 F#m
damit alle sehen, was du bist. 
    F#m                                  A
Ein Mann, der zu seinem Volke steht, der der Konfrontation nicht aus dem Wege geht
    Bm                        F#m
Ein stolzer Soldat, Ein falangist.

CHORUS

INTERLUDE
(F#m  A  Bm F#m) x 2

F#m                                             A
Deine Gefolgschaft war treu bis in den Tod, sie trugen die Fahne rot-schwarz-rot 
    Bm                            F#m
und viel zu viele gaben ihr Leben hin. 
     F#m                                   A
Zwar zerschlugen sie die roten Heere, doch vergaßen sie zu schnell deine wahre Lehre, 
     Bm                    F#m
dass nimmt einen Tod jeden Sinn.

CHORUS 

OUTRO
(Abm   A  Abm  F#m) x 4    F#m  A  Bm  F#m


Tenemos una Fé resuelta de que están vivas todas las fuentes genuinas de España.
España ha venido a menos por una triple división;
Por la división engendrada por los separatismos locales.
Por la división engendrada entre los partidos.
Y por la división engendrada por la lucha de clases.
Cuando España encuentre una empresa colectiva que supere todas esas diferencias, 
España volverá a ser grande como en sus mejores tiempos.


http://www.lastfm.es/music/Hauptkampflinie
Добавлено: 22.03.2012
Другие материалы по этой песне:
  • Аккорды и текст

Страница создана 22.03.2012
http://primanota.ru/hauptkampflinie/jose-antonio-chords.htm
Привет, Гость.
Предлагаем пройти революционный курс по гитаре.
Подарок от PrimaNota.Ru, забирай!