PrimaNota.ru - самый крупный в мире бесплатный архив песенных текстов, аккордов, табулатур и нот


Haunted - The Guilt Trip - текст песни, таба, видео

Регистрация Запомнить меня
Войти через:  Facebook Google Twitter Vk Yandex Mail.ru

Haunted - The Guilt Trip - текст песни, таба, видео

Печатать
Просмотров: 135
Tabbed by: gotoman00
Tuning: D flat

Db|-----------------------------------------------------------------|---------|
Ab|-----------------------------------------------------------------|---------|
E |---------------------------------+3+-----------------------------|---------|
B |---------------------------------+3+-----------------------------|---------|
Gb|-----------------------------------------------------------------|---------|
Db|--6--5--3--2---3--5--6----5--3--2----0--3-2-1--------------------|---------|


Db|-----------------------------------------------------------------|---------|
Ab|-----------------------------------------------------------------|---------|
E |-----------------------------------------------------------------|---------|
B |----------------------------------7-7/10-10-7--------------------|---------|
Gb|----------------------------------5-5/-8--8-5--------------------|---------|
Db|--6--5--3--2---3--5--6----5--3--2--------------------------------|---------|


Db|-----------------------------------------------------------------|---------|
Ab|-----------------------------------------------------------------|---------|
E |---------------------------------+3+-----------------------------|---------|
B |---------------------------------+3+-----------------------------|---------|
Gb|-----------------------------------------------------------------|---------|
Db|--6--5--3--2---3--5--6----5--3--2----0--3-2-1--------------------|---------|


Db|-----------------------------------------------------------------|---------|
Ab|-----------------------------------------------------------------|---------|
E |-----------------------------------------------------------------|---------|
B |-----------------------------------------------------------------|---------|
Gb|-----------------------------------------------------------------|---------|
Db|--6--5--3--2---3--5--6----5--3--2b-------------------------------|---------|


Db|-----------------------------------------------------------------|---------|
Ab|-----------------------------------------------------------------|---------|
E |-----------------------------------------------------------------|---------|
B |--4-----3--------------------------------------------------------|---------|
Gb|--2-----1--------------------------------------------------------|---------|
Db|----0-0---0-0-000-000-000-3p0-2h3/6------------------------------|---------|
       x x   x x xxx xxx xxx

Db|-----------------------------------------------------------------|---------|
Ab|-----------------------------------------------------------------|---------|
E |-----------------------------------------------------------------|---------|
B |--4-----3--------------------------------------------------------|---------|
Gb|--2-----1--------------------------------------------------------|---------|
Db|----0-0---0-0-000-000--3-3/5-5-5/6-6\----------------------------|---------|
       x x   x x xxx xxx 

Db|-----------------------------------------------------------------|---------|
Ab|-----------------------------------------------------------------|---------|
E |-----------------------------------------------------------------|---------|
B |--4-----3--------------------------------------------------------|---------|
Gb|--2-----1--------------------------------------------------------|---------|
Db|----0-0---0-0-000-000-000-3p0-2h3/6------------------------------|---------|
       x x   x x xxx xxx xxx

Db|-----------------------------------------------------------------|---------|
Ab|-----------------------------------------------------------------|---------|
E |-----------------------------------------------------------------|---------|
B |--4-----3--------------------------------------------------------|---------|
Gb|--2-----1--------------------------------------------------------|---------|
Db|----0-0---0-0-000-000--3-3/5-5-5/6-6\----------------------------|---------|
       x x   x x xxx xxx 


Db|----------------------------0h3----------------------------------|---------|
Ab|-----------------------------------------------------------------|---------|
E |--------------------4p0-3p0--------------------------------------|---------|
B |-----2-4p1---5p2-------------------------------------------------|---------|
Gb|-----------------------------------------------------------------|---------|
Db|--0--------0-----0-----------------------------------------------|---------|
              x     x

Db|-----------------------------------------------------------------|---------|
Ab|-----------------------------------------------------------------|---------|
E |-----2-4p1---5p2-------------------------------------------------|---------|
B |-----------------3-3-3-3-3---------------------------------------|---------|
Gb|-----------------3-3-3-3-3---------------------------------------|---------|
Db|--0--------0-----1-1-1-1-1---------------------------------------|---------|
                    x x x x


Db|--1p0-0-0-0-0-0-0--1-1-1----1---1-1p0-0-0-0-0-0-0--1-1-1-3--3-3-3--------|---------|
Ab|-------------------------3----3------------------------------------------|---------|
E |-------------------------------------------------------------------------|---------|
B |-------------------------------------------------------------------------|---------|
Gb|-------------------------------------------------------------------------|---------|
Db|-------------------------------------------------------------------------|---------|


Db|-------------------------------------------------------------------------|---------|
Ab|--1p0-0-0-0-0-0-0--1-1-1----1---1-1p0-0-0-0-0-0-0--1-1-1-3--3-3-3--------|---------|
E |-------------------------2----2------------------------------------------|---------|
B |-------------------------------------------------------------------------|---------|
Gb|-------------------------------------------------------------------------|---------|
Db|-------------------------------------------------------------------------|---------|


Db|-------------------------------------------------------------------------|---------|
Ab|-------------------------------------------------------------------------|---------|
E |-------------------------------------------------------------------------|---------|
B |--3-2-2--2---2-3-2-2--3-5-5---3-2-2--2---2-3-2-2--3-5-5------------------|---------|
Gb|--3-2-2--2---2-3-2-2--3-5-5---3-2-2--2---2-3-2-2--3-5-5------------------|---------|
Db|--1-0-0--0---0-1-0-0--1-3-3---1-0-0--0---0-1-0-0--1-3-3------------------|---------|


Db|-------------------------------------------------------------------------|---------|
Ab|-------------------------------------------------------------------------|---------|
E |-------------------------------------------------------------------------|---------|
B |-10-9-9--9---10-9-9--7-9-7--5----5----4----3-----------------------------|---------|
Gb|-10-9-9--9---10-9-9--7-9-7--5----5----4----3-----------------------------|---------|
Db|--8-7-7--7----8-7-7--5-7-5--3----3----2----1-----------------------------|---------|


Db|-----------------------------------------------------------------|---------|
Ab|-----------------------------------------------------------------|---------|
E |-----------------------------------------------------------------|---------|
B |--4-----3--------------------------------------------------------|---------|
Gb|--2-----1--------------------------------------------------------|---------|
Db|----0-0---0-0-000-000-000-3p0-2h3/6------------------------------|---------|
       x x   x x xxx xxx xxx

Db|-----------------------------------------------------------------|---------|
Ab|-----------------------------------------------------------------|---------|
E |-----------------------------------------------------------------|---------|
B |--4-----3--------------------------------------------------------|---------|
Gb|--2-----1--------------------------------------------------------|---------|
Db|----0-0---0-0-000-000--3-3/5-5-5/6-6\----------------------------|---------|
       x x   x x xxx xxx 

Db|-----------------------------------------------------------------|---------|
Ab|-----------------------------------------------------------------|---------|
E |-----------------------------------------------------------------|---------|
B |--4-----3--------------------------------------------------------|---------|
Gb|--2-----1--------------------------------------------------------|---------|
Db|----0-0---0-0-000-000-000-3p0-2h3/6------------------------------|---------|
       x x   x x xxx xxx xxx

Db|-----------------------------------------------------------------|---------|
Ab|-----------------------------------------------------------------|---------|
E |-----------------------------------------------------------------|---------|
B |--4-----3--------------------------------------------------------|---------|
Gb|--2-----1--------------------------------------------------------|---------|
Db|----0-0---0-0-000-000--3-3/5-5-5/6-6\----------------------------|---------|
       x x   x x xxx xxx 

Db|-----------------------------------------------------------------|---------|
Ab|-----------------------------------------------------------------|---------|
E |---------------------------------+3+-----------------------------|---------|
B |---------------------------------+3+-----------------------------|---------|
Gb|-----------------------------------------------------------------|---------|
Db|--6--5--3--2---3--5--6----5--3--2----0--3-2-1--------------------|---------|


Db|-----------------------------------------------------------------|---------|
Ab|-----------------------------------------------------------------|---------|
E |-----------------------------------------------------------------|---------|
B |----------------------------------7-7/10-10-7--------------------|---------|
Gb|----------------------------------5-5/-8--8-5--------------------|---------|
Db|--6--5--3--2---3--5--6----5--3--2--------------------------------|---------|


Db|-----------------------------------------------------------------|---------|
Ab|-----------------------------------------------------------------|---------|
E |---------------------------------+3+-----------------------------|---------|
B |---------------------------------+3+-----------------------------|---------|
Gb|-----------------------------------------------------------------|---------|
Db|--6--5--3--2---3--5--6----5--3--2----0--3-2-1--------------------|---------|


Db|-----------------------------------------------------------------|---------|
Ab|-----------------------------------------------------------------|---------|
E |-----------------------------------------------------------------|---------|
B |-----------------------------------------------------------------|---------|
Gb|-----------------------------------------------------------------|---------|
Db|--6--5--3--2---3--5--6----5--3--2b-------------------------------|---------|


Db|----------------------------0h3----------------------------------|---------|
Ab|-----------------------------------------------------------------|---------|
E |--------------------4p0-3p0--------------------------------------|---------|
B |-----2-4p1---5p2-------------------------------------------------|---------|
Gb|-----------------------------------------------------------------|---------|
Db|--0--------0-----0-----------------------------------------------|---------|
              x     x

Db|-----------------------------------------------------------------|---------|
Ab|-----------------------------------------------------------------|---------|
E |-----2-4p1---5p2-------------------------------------------------|---------|
B |-----------------3-3-3-3-3---------------------------------------|---------|
Gb|-----------------3-3-3-3-3---------------------------------------|---------|
Db|--0--------0-----1-1-1-1-1---------------------------------------|---------|
                    x x x x

Db|----------------------------0h3----------------------------------|---------|
Ab|-----------------------------------------------------------------|---------|
E |--------------------4p0-3p0--------------------------------------|---------|
B |-----2-4p1---5p2-------------------------------------------------|---------|
Gb|-----------------------------------------------------------------|---------|
Db|--0--------0-----0-----------------------------------------------|---------|
              x     x

Db|-----------------------------------------------------------------|---------|
Ab|-----------------------------------------------------------------|---------|
E |-----2-4p1---5p2-------------------------------------------------|---------|
B |-----------------3-3-3-3-3---------------------------------------|---------|
Gb|-----------------3-3-3-3-3---------------------------------------|---------|
Db|--0--------0-----1-1-1-1-1---------------------------------------|---------|
                    x x x x

Db|-------------------------------------------------------------------------|---------|
Ab|-------------------------------------------------------------------------|---------|
E |-------------------------------------------------------------------------|---------|
B |--3-2-2--2---2-3-2-2--3-5-5---3-2-2--2---2-3-2-2--3-5-5------------------|---------|
Gb|--3-2-2--2---2-3-2-2--3-5-5---3-2-2--2---2-3-2-2--3-5-5------------------|---------|
Db|--1-0-0--0---0-1-0-0--1-3-3---1-0-0--0---0-1-0-0--1-3-3------------------|---------|


Db|-------------------------------------------------------------------------|---------|
Ab|-------------------------------------------------------------------------|---------|
E |-------------------------------------------------------------------------|---------|
B |-10-9-9--9---10-9-9--7-9-7--5----5----4----3-----------------------------|---------|
Gb|-10-9-9--9---10-9-9--7-9-7--5----5----4----3-----------------------------|---------|
Db|--8-7-7--7----8-7-7--5-7-5--3----3----2----1-----------------------------|---------|


Db|-------------------------------------------------------------------------|---------|
Ab|-------------------------------------------------------------------------|---------|
E |-------------------------------------------------------------------------|---------|
B |--3-2-2--2---2-3-2-2--3-5-5---3-2-2--2---2-3-2-2--3-5-5------------------|---------|
Gb|--3-2-2--2---2-3-2-2--3-5-5---3-2-2--2---2-3-2-2--3-5-5------------------|---------|
Db|--1-0-0--0---0-1-0-0--1-3-3---1-0-0--0---0-1-0-0--1-3-3------------------|---------|


Db|-------------------------------------------------------------------------|---------|
Ab|-------------------------------------------------------------------------|---------|
E |-------------------------------------------------------------------------|---------|
B |-10-9-9--9---10-9-9--7-9-7--5----5----4----3-----------------------------|---------|
Gb|-10-9-9--9---10-9-9--7-9-7--5----5----4----3-----------------------------|---------|
Db|--8-7-7--7----8-7-7--5-7-5--3----3----2----1-----------------------------|---------|


Db|----------------------------0h3----------------------------------|---------|
Ab|-----------------------------------------------------------------|---------|
E |--------------------4p0-3p0--------------------------------------|---------|
B |-----2-4p1---5p2-------------------------------------------------|---------|
Gb|-----------------------------------------------------------------|---------|
Db|--0--------0-----0-----------------------------------------------|---------|
              x     x

Db|-----------------------------------------------------------------|---------|
Ab|-----------------------------------------------------------------|---------|
E |-----2-4p1---5p2-------------------------------------------------|---------|
B |-----------------3-3-3-3-3---------------------------------------|---------|
Gb|-----------------3-3-3-3-3---------------------------------------|---------|
Db|--0--------0-----1-1-1-1-1---------------------------------------|---------|
                    x x x x

Db|----------------------------0h3----------------------------------|---------|
Ab|-----------------------------------------------------------------|---------|
E |--------------------4p0-3p0--------------------------------------|---------|
B |-----2-4p1---5p2-------------------------------------------------|---------|
Gb|-----------------------------------------------------------------|---------|
Db|--0--------0-----0-----------------------------------------------|---------|
              x     x

Db|-----------------------------------------------------------------|---------|
Ab|-----------------------------------------------------------------|---------|
E |-----2-4p1---5p2-------------------------------------------------|---------|
B |-----------------3-3-3-3-3---------------------------------------|---------|
Gb|-----------------3-3-3-3-3---------------------------------------|---------|
Db|--0--------0-----1-1-1-1-1---------------------------------------|---------|
                    x x x x

Db|----------------------------0h3----------------------------------|---------|
Ab|-----------------------------------------------------------------|---------|
E |--------------------4p0-3p0--------------------------------------|---------|
B |-----2-4p1---5p2-------------------------------------------------|---------|
Gb|-----------------------------------------------------------------|---------|
Db|--0--------0-----0-----------------------------------------------|---------|
              x     x

Db|-----------------------------------------------------------------|---------|
Ab|-----------------------------------------------------------------|---------|
E |-----2-4p1---5p2-------------------------------------------------|---------|
B |-----------------3-3-3-3-3---------------------------------------|---------|
Gb|-----------------3-3-3-3-3---------------------------------------|---------|
Db|--0--------0-----1-1-1-1-1---------------------------------------|---------|
                    x x x x

Db|----------------------------0h3----------------------------------|---------|
Ab|-----------------------------------------------------------------|---------|
E |--------------------4p0-3p0--------------------------------------|---------|
B |-----2-4p1---5p2-------------------------------------------------|---------|
Gb|-----------------------------------------------------------------|---------|
Db|--0--------0-----0-----------------------------------------------|---------|
              x     x

Db|-----------------------------------------------------------------|---------|
Ab|-----------------------------------------------------------------|---------|
E |-----2-4p1---5p2-------------------------------------------------|---------|
B |-----------------3-3-3-3-3---------------------------------------|---------|
Gb|-----------------3-3-3-3-3---------------------------------------|---------|
Db|--0--------0-----1-1-1-1-1---------------------------------------|---------|
                    x x x x

Db|----0---0---0---0---0-------0---0--------------------------------|---------|
Ab|--5---5---5---5---6---6--3----3----------------------------------|---------|
E |-----------------------------------------------------------------|---------|
B |-----------------------------------------------------------------|---------|
Gb|-----------------------------------------------------------------|---------|
Db|-----------------------------------------------------------------|---------|


Db|----0---0---0---0---0-------0---0--------------------------------|---------|
Ab|--5---5---5---5---6---6--8----8----------------------------------|---------|
E |-----------------------------------------------------------------|---------|
B |-----------------------------------------------------------------|---------|
Gb|-----------------------------------------------------------------|---------|
Db|-----------------------------------------------------------------|---------|


Db|-----------------------------------------------------------------|---------|
Ab|----0---0---0---0---0-------0---0--------------------------------|---------|
E |--4---4---4---4---5---5--2----2----------------------------------|---------|
B |-----------------------------------------------------------------|---------|
Gb|-----------------------------------------------------------------|---------|
Db|-----------------------------------------------------------------|---------|


Db|-----------------------------------------------------------------|---------|
Ab|----0---0---0---0---0-------0---0--------------------------------|---------|
E |--4---4---4---4---5---5--7----7----------------------------------|---------|
B |-----------------------------------------------------------------|---------|
Gb|-----------------------------------------------------------------|---------|
Db|-----------------------------------------------------------------|---------|


Db|-----------------------------------------------------------------|---------|
Ab|-----------------------------------------------------------------|---------|
E |----0---0---0---0---0---0---0---0--------------------------------|---------|
B |--5---5---5---5---4---4---1---1----------------------------------|---------|
Gb|-----------------------------------------------------------------|---------|
Db|-----------------------------------------------------------------|---------|


Db|-----------------------------------------------------------------|---------|
Ab|-----------------------------------------------------------------|---------|
E |----0---0---0---0---0---0---0---0--------------------------------|---------|
B |--5---5---5---5---4---4---1---1----------------------------------|---------|
Gb|-----------------------------------------------------------------|---------|
Db|-----------------------------------------------------------------|---------|


Db|-----------------------------------------------------------------|---------|
Ab|-----------------------------------------------------------------|---------|
E |----0---0---0---0---0---0---0---0--------------------------------|---------|
B |--5---5---5---5---4---4---1---1----------------------------------|---------|
Gb|-----------------------------------------------------------------|---------|
Db|-----------------------------------------------------------------|---------|


Db|-----------------------------------------------------------------|---------|
Ab|-----------------------------------------------------------------|---------|
E |----0---0---0---0---0---0----------------------------------------|---------|
B |--5---5---5---5---4---4---1--------------------------------------|---------|
Gb|-----------------------------------------------------------------|---------|
Db|-----------------------------------------------------------------|---------|


Db|-------------------------------------------------------------------------|---------|
Ab|-------------------------------------------------------------------------|---------|
E |-------------------------------------------------------------------------|---------|
B |--3-2-2--2---2-3-2-2--3-5-5---3-2-2--2---2-3-2-2--3-5-5------------------|---------|
Gb|--3-2-2--2---2-3-2-2--3-5-5---3-2-2--2---2-3-2-2--3-5-5------------------|---------|
Db|--1-0-0--0---0-1-0-0--1-3-3---1-0-0--0---0-1-0-0--1-3-3------------------|---------|


Db|-------------------------------------------------------------------------|---------|
Ab|-------------------------------------------------------------------------|---------|
E |-------------------------------------------------------------------------|---------|
B |-10-9-9--9---10-9-9--7-9-7--5----5----4----3-----------------------------|---------|
Gb|-10-9-9--9---10-9-9--7-9-7--5----5----4----3-----------------------------|---------|
Db|--8-7-7--7----8-7-7--5-7-5--3----3----2----1-----------------------------|---------|


Db|-------------------------------------------------------------------------|---------|
Ab|-------------------------------------------------------------------------|---------|
E |-------------------------------------------------------------------------|---------|
B |--3-2-2--2---2-3-2-2--3-5-5---3-2-2--2---2-3-2-2--3-5-5------------------|---------|
Gb|--3-2-2--2---2-3-2-2--3-5-5---3-2-2--2---2-3-2-2--3-5-5------------------|---------|
Db|--1-0-0--0---0-1-0-0--1-3-3---1-0-0--0---0-1-0-0--1-3-3------------------|---------|


Db|-------------------------------------------------------------------------|---------|
Ab|-------------------------------------------------------------------------|---------|
E |-------------------------------------------------------------------------|---------|
B |-10-9-9--9---10-9-9--7-9-7--5----5----4----3-----------------------------|---------|
Gb|-10-9-9--9---10-9-9--7-9-7--5----5----4----3-----------------------------|---------|
Db|--8-7-7--7----8-7-7--5-7-5--3----3----2----1-----------------------------|---------|

Добавлено: 16.04.2012
Другие материалы по этой песне:
  • Аккорды и текст

Страница создана 16.04.2012
http://primanota.ru/haunted/the-guilt-trip-chords.htm
Привет, Гость.
Предлагаем пройти революционный курс по гитаре.
Подарок от PrimaNota.Ru, забирай!