PrimaNota.ru - самый крупный в мире бесплатный архив песенных текстов, аккордов, табулатур и нот


Haunted - The Flood - текст песни, таба, видео

Регистрация Запомнить меня
Войти через:  Facebook Google Twitter Vk Yandex Mail.ru

Haunted - The Flood - текст песни, таба, видео

Печатать
Просмотров: 142
The Haunted - The Flood tab.

This song is definitely my favorite from "The Dead Eye" album.
The tuning I use to play it is one and a half step down (C# F# B E G# C#).
It's not 100% right but I think it's close enough to tab, and I just tabbed only one guitar.


Intro (play with very fast strumming)

C# ------------------------------------------------------------ |
G# ------------------------------------------------------------ |
E  ------------------------------------------------------------ |
B  --12-------12---12---12-------12---------------------------- |
F# --10-------9----10---14-------14----------9--------9--9--9-- |
C# --0--0--0--0--0-----0----0--0----7--7--7--7--7--7--5--5--5-- |
                                                                |
                                                                |  2x
                                                                |
C# ------------------------------------------------------------ |
G# ------------------------------------------------------------ |
E  ------------------------------------------------------------ |
B  --12-------12---12---12-------12---------------------------- |
F# --10-------9----10---14-------14----------10-------10-10-10- |
C# --0--0--0--0--0-----0----0--0----8--8--8--8--8--8--7--7--7-- |


C# ------------------------------------------------------|
G# ------------------------------------------------------|
E  ------------------------------------------------------|
B  ------------------------------------------------------|
F# ------------------------------------------------------|
C# --0--0--0--0---0--0--0---0--0--0--0-0--7^10--6--0--3--|
     .  .  .      .  .      .  .                         pm


C# ------------------------------------------------------|
G# ------------------------------------------------------|
E  ------------------------------------------------------|
B  ------------------------------------------------------|
F# ------------------------------------------------------|
C# -0-0--3--5--6--5--3--0--------------------------------|


C# ------------------------------------------------------|
G# ------------------------------------------------------|
E  ------------------------------------------------------|
B  ------------------------------------------------------|
F# ------------------------------------------------------|
C# --0--0--0--0---0--0--0---0--0--0--0-0--7^10--6--0--3--|
     .  .  .      .  .      .  .                         pm


Verse: same as intro, but play this on the last part;

C# ------------------------------------------------------|
G# ------------------------------------------------------|
E  ------------------------------------------------------|
B  ------------------------------------------------------|
F# ------------------------------------------------------|
C# --0--0--0--0---0--0--0---0--0--0--0-0--7^10--6--0--3--|
     .  .  .      .  .      .  .                         pm


C# ------------------------------------------------------|
G# ------------------------------------------------------|
E  ------------------------------------------------------|
B  ------------------------------------------------------|
F# ------------------------------------------------------|
C# -0-0--3--5--6--5--3--0--------------------------------|


C# ------------------------------------------------------|
G# ------------------------------------------------------|
E  ------------------------------------------------------|
B  ------------------------------------------------------|
F# ---------------------------------------5^9^5^4--0--3--|
C# --0--0--0--0---0--0--0---0--0--0--0-0-----------------|
     .  .  .      .  .      .  .                         pm


Chorus

C# ------------------------------------------------------------ |
G# ------------------------------------------------------------ |
E  ------------------------------------------------------------ | 2x
B  --12--12--9------9--9--9------12-12-12------9--9--9--------- |
F# --10--9---7------7--6--7------9--7--9-------7--6--7--------- |
C# --0---0---0------0--0--0------0--0--0-------0--0--0--------- |


Clean part (I know it's not right and it's incomplete, but it's close)

C# ------------------------------------------------------------|
G# ----------------------10------------------------------------|
E  --------9----------------------11---------------------------|
B  ------9---9--------12-------11------------------------------|
F# ----7-------7---10--------9---------------------------------|
C# --0---------------------------------------------------------|


Solo (100% correct)

C# ------------------------------------------------------------|
G# --17------15------------------------------------------------|
E  ------16------14--16--12--11--12--14b15~14--12~~----11--12--|
B  ------------------------------------------------------------|
F# ------------------------------------------------------------|
C# ------------------------------------------------------------|

C# ------------------------------------------------------------|
G# ------------------------------------------------------------|
E  --11--9--8--9~~5~~~-----------------------------------------|
B  ------------------------------------------------------------|
F# ------------------------------------------------------------|
C# ------------------------------------------------------------|


That's it. I hope it was helpful for you, any corrections or comments, contact me.

Lucas - sgnl04@gmail.com
Добавлено: 09.03.2012
Другие материалы по этой песне:

Страница создана 01.03.2012
http://primanota.ru/haunted/the-flood-chords.htm
Привет, Гость.
Предлагаем пройти революционный курс по гитаре.
Подарок от PrimaNota.Ru, забирай!