PrimaNota.ru - самый крупный в мире бесплатный архив песенных текстов, аккордов, табулатур и нот


Haunted - Sweet Relief - текст песни, таба, видео

Регистрация Запомнить меня
Войти через:  Facebook Google Twitter Vk Yandex Mail.ru

Haunted - Sweet Relief - текст песни, таба, видео

Печатать
Просмотров: 174
Уроки эстрадного вокала в Санкт-Петербурге
----------------------------------------------------------------------------
                        SWEET RELIEF - The Haunted
----------------------------------------------------------------------------
Tabbed by: James
Email: the.master.ofpuppets@hotmail.com

Tuning: whole step down

Guitar I: this part is played very quietly in the left speaker and is a riff that is 
not heard because its so quiet
d|------------------------------------------------------|
A|------------------------------------------------------|
F|------------------------------------------------------|
C|--------9---8--------------------8--------------------|
G|----------------10-----7h9h10----------10-9-7-6-7-9---|
D|-0-0-0----0---0----0-0---------0---0-0---0-0-0-0-0----|
   * * *    *   *    * *         *   * *   * * * * *

Guitar II:
d|-----------------------------------------------------|
A|-----------------------------------------------------|
F|-----------------------------------------------------|
C|-----------------------------------------------------|
G|--2-2-2---2-2-2---2-2-2---------9-9-9-9--8-8-8-8-----|
D|--0-0-0---0-0-0---0-0-0---00000-7-7-7-7--6-6-6-6-----|


Main Riff
d|---------------------------------------------------------------|
A|---------------------------------------------------------------|
F|---------------------------------------------------------------|
C|--------9---8--------------------8-----------------------------|
G|----------------10-----7h9h10----------10-9-10p9p7--------10-7-|
D|-0-0-0----0---0----0-0---------0---0-0---0-0-------0-0--0------|
   * * *    *   *    * *         *   * *   * *       * *

d|---------------------------------------------------------------|
A|---------------------------------------------------------------|
F|---------------------------------------------------------------|
C|--------9---8--------------------8-----------------------------|
G|----------------10-----7h9h10----------10-9-10p9p7-------------|
D|-0-0-0----0---0----0-0---------0---0-0---0-0-------0-0--0--3-0-|
   * * *    *   *    * *         *   * *   * *       * *

Verse Riff:
d|--------------------------------------------------------|
A|--------------------------------------------------------|
F|--------------------------------------------------4-----|
C|----------------------------------------------------3-2-|
G|--------2-1-------------------------2-1-----------------|
D|--0000------3---000-000-000---0000------3--000--0-------|
    ****          *** *** ***   ****         ***

d|-----------------------------------------------------|
A|-----------------------------------------------------|
F|----------------------------------------------3~~~---|
C|----------------------------------------------3~~~---|
G|-------2-1-------------------------2-1--------1~~~---|
D|-0000------3---000-000-000---0000------3--000--------|
   ****          *** *** ***   ****         ***

Then it changes to this:
d|-----------------------------0--------------0~~~-|
A|-----------------------------0--------------5~~~-|
F|--------------------------------------------4~~~-|
C|---------2---1-------2-----------2---1------2~~~-|
G|-000000----3----000----3---0-------3----000------|
D|-------------------------------------------------|
   ******         ***        *            ***
   

Then back to this riff:
d|--------------------------------------------------------|
A|--------------------------------------------------------|
F|--------------------------------------------------4-----|
C|----------------------------------------------------3-2-|
G|--------2-1-------------------------2-1-----------------|
D|--0000------3---000-000-000---0000------3--000--0-------|
    ****          *** *** ***   ****         ***

d|-----------------------------------------|
A|-----------------------------------------|
F|-----------------------------------------|
C|------------------------------9-8--12-11-|
G|--------2-1-------------------7-6--10-9--|
D|-0000-------3---000-000-000--------------|
   ****           *** *** ***

this is at 0:35
d|-------------------------------------------------------------------------|
A|-------------------------------------------------------------------------|
F|-10/----10/--------------------10~~--10/---10/---------------------------|
C|-8//----8//-----/7-6----/10-9--10~~--8//---8//----/7-6-----/10-9----9/10-|
G|-----3------3------------------8~~~------3-----3-------------------------|
D|-----1------1--------0-------------------1-----1--/5-4--0--/8--7--0-7/8--|

Chorus:
d|----------0----------0-----------0----------0-----------0----------0---|
A|----------0----------0-----------0----------0-----------0----------0---|
F|----------0----------0-----------0----------0-----------0----------0---|
C|--2-2--2--2--2-2--2--2---4-4--4--4--4-4--4--4---5-5--5--5--5-5--5--5---|
G|--2-2--2-----2-2--2------4-4--4-----4-4--4------5-5--5-----5-5--5------|
D|--0-0--0-----0-0--0----0-2-2--2-----2-2--2----2-3-3--3-----3-3--3----3-|

d|----------0------------|
A|----------0------------|
F|----------0------------|
C|--7-7--7--7------------|
G|--7-7--7----7---2-2-2--|
D|--5-5--5----5---0-0-0--|
                  * * *

then play this riff
d|------------------------------------------------------|
A|------------------------------------------------------|
F|------------------------------------------------------|
C|--------9---8--------------------8--------------------|
G|----------------10-----7h9h10----------10-9-7-6-7-9---|
D|-0-0-0----0---0----0-0---------0---0-0---0-0-0-0-0----|
   * * *    *   *    * *         *   * *   * * * * *

d|--------------------------------------------------------|
A|--------------------------------------------------------|
F|--------------------------------------------------------|
C|-----------9---8----------------------------------------|
G|-5h6h7-------------10------5h7h9----10-----9-7-6-7-9-10-|
D|-------0-0---0---0----0-0---------0----0-0--0-0-0-0-0---|
         * *   *   *    * *         *    * *  * * * * *

Then play the verse and all this stuff again:
Verse Riff:
d|--------------------------------------------------------|
A|--------------------------------------------------------|
F|--------------------------------------------------4-----|
C|----------------------------------------------------3-2-|
G|--------2-1-------------------------2-1-----------------|
D|--0000------3---000-000-000---0000------3--000--0-------|
    ****          *** *** ***   ****         ***

d|-----------------------------------------------------|
A|-----------------------------------------------------|
F|----------------------------------------------3~~~---|
C|----------------------------------------------3~~~---|
G|-------2-1-------------------------2-1--------1~~~---|
D|-0000------3---000-000-000---0000------3--000--------|
   ****          *** *** ***   ****         ***

Then it changes to this:
d|-----------------------------0--------------0~~~-|
A|-----------------------------0--------------5~~~-|
F|--------------------------------------------4~~~-|
C|---------2---1-------2-----------2---1------2~~~-|
G|-000000----3----000----3---0-------3----000------|
D|-------------------------------------------------|
   ******         ***        *            ***
   

Then back to this riff:
d|--------------------------------------------------------|
A|--------------------------------------------------------|
F|--------------------------------------------------4-----|
C|----------------------------------------------------3-2-|
G|--------2-1-------------------------2-1-----------------|
D|--0000------3---000-000-000---0000------3--000--0-------|
    ****          *** *** ***   ****         ***

d|-----------------------------------------|
A|-----------------------------------------|
F|-----------------------------------------|
C|------------------------------9-8--12-11-|
G|--------2-1-------------------7-6--10-9--|
D|-0000-------3---000-000-000--------------|
   ****           *** *** ***

d|-------------------------------------------------------------------------|
A|-------------------------------------------------------------------------|
F|-10/----10/--------------------10~~--10/---10/---------------------------|
C|-8//----8//-----/7-6----/10-9--10~~--8//---8//----/7-6-----/10-9----9/10-|
G|-----3------3------------------8~~~------3-----3-------------------------|
D|-----1------1--------0-------------------1-----1--/5-4--0--/8--7--0-7/8--|

Then play this rhythm:
d|---------------------------------------|
A|---------------------------------------|
F|---------------------------------------|
C|---------------------------------------|
G|--9-9-9---------9-9-9---------9---9-9--|
D|--7-7-7--0-0-0--7-7-7--0-0-0--7-0-7-7--|

d|---------------------------------------|
A|---------------------------------------|
F|---------------------------------------|
C|---------------------------------------|
G|--8-8-8---------8-8-8---------8---8-8--|
D|--6-6-6--0-0-0--6-6-6--0-0-0--6-0-6-6--|

d|---------------------------------------|
A|---------------------------------------|
F|---------------------------------------|
C|---------------------------------------|
G|--9-9-9---------9-9-9---------9---9-9--|
D|--7-7-7--0-0-0--7-7-7--0-0-0--7-0-7-7--|

d|--------------------------------------------|
A|--------------------------------------------|
F|--------------------------------------------|
C|--------------------------------------------|
G|--10-10-10--------10-10-10--------10--10-10-|
D|--8--8--8--0-0-0--8--8--8--0-0-0--8-0-8--8--|

Then this part is played ontop of the previous riff (* are palm muted)
d|-------------------------------------------------------------------------|
A|-------------------------------------------------------------------------|
F|-------------------------------------------------------------------------|
C|--4----------------3-----------------4---------------5-------------------|
G|--2----------------1-----------------2---------------3-------------------|
D|----0-0--0-0--0-0----0-0--0-0--0-0-0---0-0--0-0--0-0---0-0---0-0--0-0-0--|
      * *  * *  * *    * *  * *  * * *   * *  * *  * *   * *   * *  * * *

Guitar Solo: Other guitar plays chorus
d|------------------------------------------------------------|
A|--12----10----8-----7---------------------------------------|
F|----------------------------7--9-----------7------9-----7---|
C|-----9-----9-----9--------9------7-----7h9----7h9---7h9-----|
G|------------------------------------------------------------|
D|------------------------------------------------------------|

d|--------------------------------16h19p16--------------------------------|
A|-----------------------------------------19----17-----------------------|
F|--------------------------------------------16----16---16-15-16-17------|
C|--7h9p7-10-9-7----------------------------------------------------------|
G|---------------10-9-7---------------------------------------------------|
D|----------------------10-8-7-5-7----------------------------------------|

d|--------------------------------------------|
A|---12-12-12--8-8-8--7-7-7--8-8-8--10-10-10--|
F|--------------------------------------------|
C|--------------------------------------------|
G|--------------------------------------------|
D|--------------------------------------------|

d|-------------------------------------------------------|
A|-8-----8-----8-------------8-<7>-----<7>-<8>~~~~~~~~~--|
F|---9-9---9-9---9-9--<9>----------<9>-------------------|
C|-------------------------------------------------------|
G|-------------------------------------------------------|
D|-------------------------------------------------------|
     * *   * *   * *

Post-Solo
d|-------------------------------------------------------------------------|
A|-------------------------------------------------------------------------|
F|-------------------------------------------------------------------------|
C|--4----------------3-----------------4---------------5-------------------|
G|--2----------------1-----------------2---------------3-------------------|
D|----0-0--0-0--0-0----0-0--0-0--0-0-0---0-0--0-0--0-0---0-0---0-0--0-0-0--|
      * *  * *  * *    * *  * *  * * *   * *  * *  * *   * *   * *  * * *

last chorus:
d|----------0----------0-----------0----------0-----------0----------0---|
A|----------0----------0-----------0----------0-----------0----------0---|
F|----------0----------0-----------0----------0-----------0----------0---|
C|--2-2--2--2--2-2--2--2---4-4--4--4--4-4--4--4---5-5--5--5--5-5--5--5---|
G|--2-2--2-----2-2--2------4-4--4-----4-4--4------5-5--5-----5-5--5------|
D|--0-0--0-----0-0--0----0-2-2--2-----2-2--2----2-3-3--3-----3-3--3----3-|

d|----------0------------|
A|----------0------------|
F|----------0------------|
C|--7-7--7--7------------|
G|--7-7--7----7---2-2-2--|
D|--5-5--5----5---0-0-0--|
                  P.M.

Finish with this riff
d|------------------------------------------------------|
A|------------------------------------------------------|
F|------------------------------------------------------|
C|--------9---8--------------------8--------------------|
G|----------------10-----7h9h10----------10-9-7-6-7-9---|
D|-0-0-0----0---0----0-0---------0---0-0---0-0-0-0-0----|
   * * *    *   *    * *         *   * *   * * * * *

d|--------------------------------------------------------|
A|--------------------------------------------------------|
F|--------------------------------------------------------|
C|-----------9---8----------------------------------------|
G|-5h6h7-------------10------5h7h9----10-----9-7-6-7-9-10-|
D|-------0-0---0---0----0-0---------0----0-0--0-0-0-0-0---|
         * *   *   *    * *         *    * *  * * * * *


d|------------------------------------------------------|
A|------------------------------------------------------|
F|------------------------------------------------------|
C|--------9---8--------------------8--------------------|
G|----------------10------7h9h10---------10-9-7-6-7-9---|
D|-0-0-0----0---0----0-0---------0---0-0---0-0-0-0-0----|
   * * *    *   *    * *         *   * *   * * * * *

d|-----------------------------------------------------------|
A|-----------------------------------------------------------|
F|-----------------------------------------------------------|
C|-----------9---8-----------------------------------------2-|
G|-5h6h7-------------10------5h7h9----10-----9-7-6-7-9-10--2-|
D|-------0-0---0---0----0-0---------0----0-0--0-0-0-0-0----0-|
         * *   *   *    * *         *    * *  * * * * *

Vote and Comment

| <9>Pinch Harmonic 
| *  Palm Mute
| /  slide up
| \  slide down
| h  hammer-on
| p  pull-off
| ~  vibrato
| +  harmonic
| x  Mute note
============================================================================
Добавлено: 30.03.2012
Другие материалы по этой песне:

Страница создана 30.03.2012
http://primanota.ru/haunted/sweet-relief-chords.htm
Привет, Гость.
Предлагаем пройти революционный курс по гитаре.
Подарок от PrimaNota.Ru, забирай!