PrimaNota.ru - самый крупный в мире бесплатный архив песенных текстов, аккордов, табулатур и нот


Haunted - Privation Of Faith Inc - таба, видео

Регистрация Запомнить меня
Войти через:  Facebook Google Twitter Vk Yandex Mail.ru

Haunted - Privation Of Faith Inc - таба, видео

Печатать
Просмотров: 92
Band- Haunted
Song- Privation Of Faith Inc.

Tuning:1 Whole Step Down, D,G,C,F,A,D

(O:29)Main Riff
|---------------------------------------------------------|
|---------------------------------------------------------|
|---------------------------------------------------------|Gtr1&2
|-------------------------------------------------h-------|
|--2-2--2-5-5--5-2-2--2-5-4--4-2-2--2-5-5--------23--1----|
|--0-0--0-3-3--3-0-0--0-3-2--2-0-0--0-3-3--0-1-(1)--1-1-3-|
        .      .      .      .      .        .      . .

Riff Played over Main Riff (Play Main Riff w/o Ending until
 this is played twice
Riff A
|------------------------------------------------|
|------------------------------------------------|
|------------------------------------------------|
|------------------------------------------------|
|----7-10--7-10--6-9--5-8--7-10--7-10--6-9--8-11-|
|--00----00----00---00---00----00----00---00-----|
   ..    ..    ..   ..   ..    ..    ..   ..
Play Riff A twice and end with:
|---------------------------|
|---------------------------|
|---------------------------|
|-------------------h-------|
|--8-11-8~~~~------23--1----|
|--------------1-(1)--1-1-3-|
               .      . .

Riff B (Clean,Let Ring)
|----------------------------|
|----------0-----------------|
|--------0-3h--------0-3-----|
|------2-----------2----5----|
|----2-----------2-----------|
|--0-----------0-------------|
Play Clean Riff 4 times
Another guitar is ringing(open E, feedback)

Fill
|------|
|------|
|------|
|--5-3-|
|--3-1-|
|--3-1-|


Riff C (With Main Riff)Play 2 Times
|-----------------------------------|
|-----------12----------------------|
|-------9-12--------------10-----9--|
|----------------------8---X-----X--|
|--7-10---------7-10-7--7--8-----7--|
|-----------------------------------|

Open E chord, intro to "Godpuppet".
Добавлено: 29.06.2012
Другие материалы по этой песне:

Страница создана 09.04.2012
http://primanota.ru/haunted/privation-of-faith-inc-chords.htm
Привет, Гость.
Предлагаем пройти революционный курс по гитаре.
Подарок от PrimaNota.Ru, забирай!