PrimaNota.ru - самый крупный в мире бесплатный архив песенных текстов, аккордов, табулатур и нот


Haunted - Liquid Burns - текст песни, таба, видео

Регистрация Запомнить меня
Войти через:  Facebook Google Twitter Vk Yandex Mail.ru

Haunted - Liquid Burns - текст песни, таба, видео

Печатать
Просмотров: 132
Уроки эстрадного вокала в Санкт-Петербурге
00:00

----------------------------------------|
----------------------------------------|
----------------------------------------|
-------8---7----------------------------|
-2-/9---9---8--2----7---6---------------|
-0-------------0-/8---8---7-------------|


----------------------------------------|
----------------------------------------|
----------------------------------------|
-------8---7---2-3-3-x-5-6--------------|
-2-/9---9---8--2-3-3-x-5-6--------------|
-0-------------2-3-3-x-5-6--------------|


----------------------------------------|
----------------------------------------|
----------------------------------------|
-------8---7----------------------------|
-2-/9---9---8--2----7---6---------------|
-0-------------0-/8---8---7-------------|


----------------------------------------|
----------------------------------------|
----------------------------------------|
-------8---7---2-3-3-x-3-1--------------|
-2-/9---9---8--2-3-3-x-3-1--------------|
-0-------------2-3-3-x-3-1--------------|


00:16
----------------------------------------|
----------------------------------------|
----------------------------------------|
-------8---7----------------------------|
-2-/9---9---8--2----7---6---------------|
-0-------------0-/8---8---7-------------|


01:16
----------------------------------------|
----------------------------------------|
----------------------------------------|
-6---5-3--------------------------------|
-6---5-3--------------------------------|
-6---5-3--------------------------------|

----------------------------------------|
----------------------------------------|
----------------------------------------|
----------------------------------------|
--------4----3--------------------------|
-2-2-2---2-2---2-2-2-5-2h3--------------|

----------------------------------------|
----------------------------------------|
----------------------------------------|
----------------------------------------|
-------4-----3-------3-0-3--------------|
-2-2-2---2-2---2-2-2-3-0-3--------------|


01:26
----------------------------------------|
----------------------------------------|
----------------------------------------|
----------------------------------------|
-------7------6------3------------------|
-0-0-0-7--0-0-6--0-0-3--0h1-------------|


----------------------------------------|
----------------------------------------|
----------------------------------------|
---------------------3------------------|
-------7------6------3------------------|
-0-0-0-7--0-0-6--0-0-3------------------|

01:35
----------------------------------------|
----------------------------------------|
----------------------------------------|
----------------------------------------|
--------4----3--------------------------|
-2-2-2---2-2---2-2-2-5-2h3--------------|

----------------------------------------|
----------------------------------------|
----------------------------------------|
----------------------------------------|
-------4-----3-------3-0-3--------------|
-2-2-2---2-2---2-2-2-3-0-3--------------|

01:43

----------------------------------------|
----------------------------------------|
----------------------------------------|
----------------------------------------|
-------7-----6--------------------------|
-5-5-5---5-5---5-5-8-5h6----------------|

----------------------------------------|
----------------------------------------|
----------------------------------------|
----------------------------------------|
-------7-----6--------------------------|
-5-5-5---5-5---5-5-6-3-6----------------|


01:48

----------------------------------------|
----------------------------------------|
----------------------------------------|
----------------------------------------|
--------4----3--------------------------|
-2-2-2---2-2---2-2-2-5-2h3--------------|

----------------------------------------|
----------------------------------------|
----------------------------------------|
----------------------------------------|
-------4-----3-------3-0-3--------------|
-2-2-2---2-2---2-2-2-3-0-3--------------|


01:52

----------------------------------------|
----------------------------------------|
----------------------------------------|
---------8---7--------------------------|
-------9---9---8---------7---6----------|
-0-0-0-----------0-0-0-8---8---7--------|

----------------------------------------|
----------------------------------------|
----------------------------------------|
---------8---7----0-1--3-4--------------|
-------9---9---8--0-1--3-4--------------|
-0-0-0------------0-1--3-4--------------|
Добавлено: 14.04.2012
Другие материалы по этой песне:

Страница создана 28.02.2012
http://primanota.ru/haunted/liquid-burns-chords.htm
Привет, Гость.
Предлагаем пройти революционный курс по гитаре.
Подарок от PrimaNota.Ru, забирай!