PrimaNota.ru - самый крупный в мире бесплатный архив песенных текстов, аккордов, табулатур и нот


Haunted - Human Debris - текст песни, таба, видео

Регистрация Запомнить меня
Войти через:  Facebook Google Twitter Vk Yandex Mail.ru

Haunted - Human Debris - текст песни, таба, видео

Печатать
Просмотров: 115
Band- Haunted
Song- Human Debris

Tuning: Eb

Intro Riff
|----------------------------------------------|
|----------------------------------------------|
|----------------------------------------------|
|--0-------------------------------------------|
|----------------------------------------------|
|--3------333333333333333333333333-3\*/--------|

*slide until it sounds perfect

Riff A
|----------------------------------------------------|
|----------------------------------------------------|
|----------------------------------------------------|
|--2------------------------2------------------------|
|-----1\8-7--1\6-7--1\8-7------1\8-7--1\6-7--1\8-7---|
|----------------------------------------------------|

Riff B
|----------------------------------------------------------------------|
|----------------------------------------------------------------------|
|----------------------------------------------------------------------|
|----------------------------------------------------------------------|
|-2-2-0h1\5-7--2-2-0h1\5--7-7-5-1----2-2-0h1\5-7--2-2-0h1\5--7-7-5-1---|
|----------------------------------------------------------------------|

Riff C
|----------------------------------------------------------------|
|----------------------------------------------------------------|
|----------------------------------------------------------------|
|---------------------------------3---2--------------------------|
|--3---2--------------------------3---2--------------------------|
|--3-0-2---5h6-5/7-5/7--5/4/3p0---1-0-0---5h6-5/7-5/7--5/4/3p0---|

Riff A x2
Riff B x2
Riff C

Riff D x4                                  d2
|-----------------------------------------|------|
|-----------------------------------------|------|
|-----------------------------------------|------|
|----2-4-5---------------2-4-5------------|-0----|
|--2--------1-5-7-4----2--------1-5-7-4---|------|
|-----------------------------------------|-3----|

Riff E x2                                                    e2
|-----------------------------------------------------------|-------|
|-----------------------------------------------------------|-------|
|-----------------------------------------------------------|-------|
|---------2---------1---------2--3p2--7p6--2h3--7p6--3/2p0--|--2\3--|
|---------2---------2---------2-----------------------------|--2\3--|
|--5/3p0-----5/3p0-----5/3p0--------------------------------|-------|

Riff E x2

Solo
|------------------------------------------------------------|
|------------------------------------------------------------|
|------------------------------------------------------------|
|------------------------------------------------------------|
|--0--2\3-5-8-7-5--3/4/8---3/2-0-2h3p2-0-----------10\9/12---|
|----------------------------------------3-2--3p0---8\7/10---|


 ------------------------------------------------|
 --18///6p5h6-6-5-3-5-6--3-3-6-5-3-1p0----5--4---|
 --------------------------------------2---------|
 ------------------------------------------------|
 ------------------------------------------------|
 ------------------------------------------------|

These notes are barely heard after the solo:
|-------------------------------------|
|-------------------------------------|
|-------------------------------------|
|-------------------------------------|
|--(2-2-0h1\5-7--2-2-0h1\5--7-7-5-1)--|
|-------------------------------------|
    . . ... . .  . . ... .  . . . .

Fill
|--------------------------------------|
|--------------------------------------|
|--------------------------------------|
|--------------------------------------|
|--2-2-0h1\5-7--2-2-0h1\5--7-7-5-1-----|
|--------------------------------------|

Riff C
Riff D x4

Ending
|--------------------------|
|--------------------------|
|--------------------------|
|--------------------------|
|----------------------0---|
|--5p4-4p3-3p2-2p1-1p0-0---|
Добавлено: 08.04.2012
Другие материалы по этой песне:

Страница создана 08.04.2012
http://primanota.ru/haunted/human-debris-chords.htm
Привет, Гость.
Предлагаем пройти революционный курс по гитаре.
Подарок от PrimaNota.Ru, забирай!