PrimaNota.ru - самый крупный в мире бесплатный архив песенных текстов, аккордов, табулатур и нот


Haunted - Crowning - бас-таба, видео

Регистрация Запомнить меня
Войти через:  Facebook Google Twitter Vk Yandex Mail.ru

Haunted - Crowning - бас-таба, видео

Печатать
Просмотров: 117
The Haunted
The Crowning
CGCF

Intro:
|------------|--------------|-----------|
|------------|--------------|-----------|
|-3-2--------|--------------|-----------|
|-----3-5-0~-|-0-00-00-0000-|-0-00-00-r-|

Verse:
|--------------|--------------|
|*--------46---|---------46---|
|*------47--4--|-------47--64-|
|-2-00-0-------|-2-00-0-------|

|--------------|----------|
|---------46---|---------*|
|-------47--4--|-3-3-2-2-*|
|-2-00-0-------|----------|

Chorus:
|-------|-------|-------|-------|-------|-------|-------|-------------|
|-------|-------|-------|-------|-------|-------|-------|-----4---2---|
|-0-X12-|-------|-0-X12-|-------|-0-X12-|-0-x12-|-------|-------2---2-|
|-------|-2-X12-|-------|-2-X12-|-------|-------|-0-x12-|-2-2---------|

|-------|-------|--------------|---------|----------------|-----------|
|-------|-------|--------------|---------|----------------|-----------|
|-0-X12-|-------|--------------|---------|----------------|-----------|
|-------|-2-X12-|-444433330000-|-(0)~----|-0-00-00-0-0000-|-0-00-00-r-|

Pre Chorus:
|----------------|
|----------------|
|-3--2--3--2-----|
|-------------3~-|

Interlude:
|-----------|----------------|
|-----------|--------4---2---|
|-----------|----------2---2-|
|-2^-2~-----|----/2----------|

Bridge Main Riff:
|----12-----11-----11-------/9---7-9--|
|--11-----9------9----9---9----7------|
|-9-----9------9--------9-------------|
|-------------------------------------|

Ending 1:
|---------------------------------|
|---9---10---9--9-10-9-10^(12)-10-|
|-9---9----9----------------------|
|---------------------------------|

Ending 2:
|------------------|
|------------------|
|------------------|
|-0000000000000000-|
Outro:
|----------------|
|*--------------*|
|*--------------*|
|-2-00-00-000000-|

|---------|--------||
|---------|--------||
|-2-3-r---|-3-r----||
|---------|--------||

That's all the riffs, all you have to do is figure out the order and how many time to 
when you play :)
Добавлено: 26.05.2012
Другие материалы по этой песне:
  • Аккорды и текст

Страница создана 26.05.2012
http://primanota.ru/haunted/crowning-chords.htm
Привет, Гость.
Предлагаем пройти революционный курс по гитаре.
Подарок от PrimaNota.Ru, забирай!