PrimaNota.ru - самый крупный в мире бесплатный архив песенных текстов, аккордов, табулатур и нот


Hatfield And The North - Aigrette - таба, видео

Регистрация Запомнить меня
Войти через:  Facebook Google Twitter Vk Yandex Mail.ru

Hatfield And The North - Aigrette - таба, видео

Печатать
Просмотров: 83
Уроки эстрадного вокала в Санкт-Петербурге
Авторы: Phil Miller

Hatfield and the North
Aigrette (Miller)

petterimakiniemi@hotmail.com

h - hammer on
p - pull off
/ - slide

Vocal and guitar:

E---------------------------------------------------------------------
B-11-9------------9--------------------------------12-----------------
G--------11-10-11------------------11---9-8----8----------------------
D-------------------11-9--------------------11---9--------------------
A------------------------12-11-9--------------------------------------
E---------------------------------------------------------------------


E----9----------------------------------------------------------------
B------10-12-9-10-------10-9-------------------11---------------------
G-----------------10---------11---9-8-9-8---------11------8-9-11-9----
D-11-----------------11-------------------9------------11-------------
A-------------------------------------------11------------------------
E---------------------------------------------------------------------


E-------------12-10---------------------------------------------------
B-------------------12---11-10------------13-10-----------------------
G----------12------------------12-10-9------------9-10-11-------------
D-14-13-12-----------------------------12-----------------------------
A---------------------------------------------------------------------
E---------------------------------------------------------------------


E------------------------------------(8/)10---------------------------
B-11-12-9-----------------------------------13-12---------------------
G---------9----------------9-12-11------------------11----------------
D-----------10-9---9h10h11-----------------------------12-9-----------
A---------------------------------------------------------------------
E---------------------------------------------------------------------


E-12-11-10----------------------12h13-12---------8/10-8---------------
B----------13-12-------------------------11-12----------9-------------
G----------------12-9-------------------------------------------------
D---------------------12-10-9-----------------------------------------
A---------------------------------------------------------------------
E---------------------------------------------------------------------


E---------------------------------------------------------------------
B-12-13-12-10-9-10---9-10-12---------10-------------------------------
G------------------------------11-12----------------------------------
D---------------------------------------------------------------------
A---------------------------------------------------------------------
E---------------------------------------------------------------------


E----9----------------------------------------------------------------
B------12-10-9-10-12---------9----------------------------------------
G-11-----------------9---------11-------9-----------------------------
D----------------------12-11------------------------------------------
A-----------------------------------8h9-------------------------------
E---------------------------------------------------------------------


E-----------------9-9-------------------------9-9-9-------------------
B---------------------12-10----12------9-10---------12-10----12-------
G---------------------------11------11--------------------11----------
D-11h12-11-12-9-------------------------------------------------------
A---------------------------------------------------------------------
E---------------------------------------------------------------------


E---------------------------------------------------------------------
B--------------12-12-12-10------10----------------12-12-12-10------10-
G----9-11-12---------------12-9---------9-11-12---------------12-9----
D-12---------------------------------12-------------------------------
A---------------------------------------------------------------------
E---------------------------------------------------------------------


E-----------9-9-9-------------------------9-9-9-----------------------
B----9-10---------12-10----12------9-10---------12-10----12-----------
G-11--------------------11------11--------------------11--------------
D---------------------------------------------------------------------
A---------------------------------------------------------------------
E---------------------------------------------------------------------


E---------------------------------------------------------------------
B--------------12-12-12-10------10----------------12-12-12-10------10-
G----9-11-12---------------12-9---------9-11-12---------------12-9----
D-12---------------------------------12-------------------------------
A---------------------------------------------------------------------
E---------------------------------------------------------------------


E-----------9-9-9-------------------------9-9-9-----------------------
B----9-10---------12-10----12------9-10---------12-10----10-----------
G-11--------------------11------11--------------------11--------------
D---------------------------------------------------------------------
A---------------------------------------------------------------------
E---------------------------------------------------------------------

_________________________________________________________________
     
Добавлено: 01.12.2013
Вам также может быть интересно:
Другие материалы по этой песне:
  • Аккорды и текст

Страница создана 01.12.2013
http://primanota.ru/hatfield-and-the-north/aigrette-chords.htm
Привет, Гость.
Предлагаем пройти революционный курс по гитаре.
Подарок от PrimaNota.Ru, забирай!