PrimaNota.ru - самый крупный в мире бесплатный архив песенных текстов, аккордов, табулатур и нот


Hatebreed - Supremacy Of Self - текст песни, таба, бас-таба, видео

Регистрация Запомнить меня
Войти через:  Facebook Google Twitter Vk Yandex Mail.ru

Hatebreed - Supremacy Of Self - текст песни, таба, бас-таба, видео

Печатать
Просмотров: 196
Уроки эстрадного вокала в Санкт-Петербурге
Hatebreed - Supremacy Of Self
Tabbed By: Judd
EMail: dowhat.feelsgood@yahoo.com

Drop C (CGCFAD)

Intro
|-------------|
|-------------|
|-------------|
|-----------0-|
|-5-4-3-4-210-|
|-5-4-3-4-210-|

Verse 1 
|-----------------------------------------------|
|-----------------------------------------------|
|-----------------------------------------------|
|-----------------------------------------------|
|-0-0-0-0-3--0-0-0-0-5--0-0-0-0-7--00-10\9-00-7-|
|-0-0-0-0-3--0-0-0-0-5--0-0-0-0-7--00-10\9-00-7-| x4
pm. . . .    . . . .    . . . .    ..      ..

Verse 2
|-----------------|
|-----------------|
|-----------------|
|-0---------------|
|-0--00-10\9-00-7-|
|-0--00-10\9-00-7-| x4
pm   ..      ..

Chorus
|-------------------------------|-------------------------|
|------------play x3------------|---------play x1---------|
|-------------------------------|-------------------------|
|-------------------------------|-----------------------0-|
|-66675-00000000-44456-00000000-|-66675-00000000-444456-0-|
|-66675-00000000-44456-00000000-|-66675-00000000-444456-0-|
pm      ........       ........         ........

Repeat verse 1
Repeat verse 2
Repeat chorus 
Repeat verse 1
Repeat intro

Yet another tune by Hatebreed that sounds awesome and is a blast to play, 
hopefully it's somewhat close to the original but tweak it as you see fit. 
Добавлено: 06.04.2012
Другие материалы по этой песне:

Страница создана 11.03.2012
http://primanota.ru/hatebreed/supremacy-of-self-chords.htm
Привет, Гость.
Предлагаем пройти революционный курс по гитаре.
Подарок от PrimaNota.Ru, забирай!