PrimaNota.ru - самый крупный в мире бесплатный архив песенных текстов, аккордов, табулатур и нот


Hatebreed - In Ashes They Shall Reap - текст песни, таба, бас-таба, видео

Регистрация Запомнить меня
Войти через:  Facebook Google Twitter Vk Yandex Mail.ru

Hatebreed - In Ashes They Shall Reap - текст песни, таба, бас-таба, видео

Печатать
Просмотров: 155
-------------------------------------------------------------------------------
                             HATEBREED - In Ashes They Shall Reap
-------------------------------------------------------------------------------
Tabbed by: stonebrain
Email: sanctus_reboare@yahoo.com

Tuning: Drop B (B F# B E G# C#)

*All riffs are in order as they are played in the song.*

C|--------------|
G|--------------|
E|--------------|
B|--------------|X4
F|-0-0-0-0--4-1-|
B|-0-0-0-0--4-1-|


C|------------------------------------------------------|
G|------------------------------------------------------|
E|------------------------------------------------------|
B|------------------------------------------------------|X2
F|----------5--5--5--3--6\5-------------5--5--5--3--8-7-|
B|-0-0-0-0-----8--7--3--6\5--0-0-0-0-0-----8--7--3------|
   x x x x                   x x x x x

C|--------------|
G|--------------|
E|--------------|
B|--------------|X4
F|-0-0-0-0--4-1-|
B|-0-0-0-0--4-1-|


C|------------------------------------------------------|
G|------------------------------------------------------|
E|------------------------------------------------------|
B|------------------------------------------------------|X2
F|----------5--5--5--3--6\5-------------5--5--5--3--8-7-|
B|-0-0-0-0-----8--7--3--6\5--0-0-0-0-0-----8--7--3------|
   x x x x                   x x x x x


C|-------------------------------------|
G|-------------------------------------|
E|-------------------------------------|
B|-------------------------------------|X4
F|-----0--------------0-0-0-0------4-1-|
B|-0-0-0--0-0-0-0-0-0-0-0-0-0-0-0--4-1-|
   x x    x x x x x x   x     x x 


C|---------------------------------------|
G|---------------------------------------|
E|---------------------------------------|
B|---------------------------------------|X3
F|-5--5--5--5--5--5-5--5--5--5--5--5--5-5|
B|-8--8--8--5--5--5-5--7--7--7--7--7--7-7|


C|----------------------|
G|----------------------|
E|----------------------|
B|----------------------|X1
F|-5--5--5--5--5--5-5-0-|
B|-8--8--8--5--5--5-5-0-|


C|--------------|
G|--------------|
E|--------------|
B|--------------|X8
F|-0-0-0-0--4-1-|
B|-0-0-0-0--4-1-|


C|----------------------|
G|----------------------|
E|----------------------|
B|----------------------|X1
F|-5--5--5--5--5--5-5-0-|
B|-8--8--8--5--5--5-5-0-|



| /  slide up
| \  slide down
| h  hammer-on
| p  pull-off
| ~  vibrato
| +  harmonic
| x  Mute note
===============================================================================
Добавлено: 25.07.2012
Другие материалы по этой песне:

Страница создана 22.02.2012
http://primanota.ru/hatebreed/in-ashes-they-shall-reap-chords.htm
Привет, Гость.
Предлагаем пройти революционный курс по гитаре.
Подарок от PrimaNota.Ru, забирай!