PrimaNota.ru - самый крупный в мире бесплатный архив песенных текстов, аккордов, табулатур и нот


Hatebreed - As Diehard As They Come - текст песни, таба, бас-таба, видео

Регистрация Запомнить меня
Войти через:  Facebook Google Twitter Vk Yandex Mail.ru

Hatebreed - As Diehard As They Come - текст песни, таба, бас-таба, видео

Печатать
Просмотров: 144
artist: HateBreed	                                  ///
album: Supremacy                                         ///
song: As Diehard As They Come                           ///
                                                       /// 
tabbed by: h8myself                                   ///
tuning: CGCFAD                                       ///
///////////////////////////////////////////////////////


Riff 1 (00:00 - 00:33)

|------------------------------------|
|------------------------------------|
|------------------------------------|
|---------7-8-7~-------1p0-0-0-1p0-0-|  6x
|--7-8-7~--------7-8-7~1p0-0-0-1p0-0-|
|-0------0------0------1p0-0-0-1p0-0-|
  .      .      .          . .     . 


Riff 2 (00:33 - 00:50)
(fast picking) 
|----------------------------------|
|----------------------------------|
|----------------------------------|
|-7-7--7-8-8-8-7-5-5--8-10-10-10-8-|  5x  --->guitar2- 1st time on start, 
|-5-5--5-6-6-6-5-3-3--6-8--8--8--6-|                      whit pick slide
|----------------------------------|


Riff 1 (00:50 - 01:00)

|--------------------------------------|
|--------------------------------------|
|--------------------------------------|
|-----------7-8-7~-------1p0-0-0-1p0-0-|  2x
|---7-8-7~---------7-8-7~1p0-0-0-1p0-0-|
|-0-------0------0-------1p0-0-0-1p0-0-|
  .       .      .           . .     . 


Riff 2 (01:00 - 01:23)
(fast picking) 
|----------------------------------|
|----------------------------------|
|----------------------------------|
|-7-7--7-8-8-8-7-5-5--8-10-10-10-8-|  8x
|-5-5--5-6-6-6-5-3-3--6-8--8--8--6-|
|----------------------------------|


Riff 1 (01:23 - 01:35)

|----------------------------------------|
|----------------------------------------|
|----------------------------------------|
|-----------7-8-7~-------1p0-0-0-1p0-0-0-|  2x
|---7-8-7~---------7-8-7~1p0-0-0-1p0-0-0-|
|-0-------0------0-------1p0-0-0-1p0-0-0-|
  .       .      .           . .     . .


Riff 3 (01:35 - 02:08)

|------------------------------------------|
|------------------------------------------|
|------------------------------------------|
|------------2-3-2---------1p0-0-0-1p0-0-0-|  6x  
|----7-8-7~--2-3-2---7-8-7~1p0-0-0-1p0-0-0-|
|-0--------0-2-3-2-0-------1p0-0-0-1p0-0-0-|
  .        .       .           . .     . .


Ending Riff (02:08 - 02:17)	

|--------------------------------------------|
|--------------------------------------------|
|--------------------------------------------|
|-----------2-3-2---------1p0-0-0-1p0-0-0--0-|  1x
|---7-8-7~--2-3-2---7-8-7~1p0-0-0-1p0-0-0--0-|
|-0-------0-2-3-2-0-------1p0-0-0-1p0-0-0--0-|
  .       .       .           . .     . .
Добавлено: 27.06.2013
Другие материалы по этой песне:

Страница создана 14.03.2012
http://primanota.ru/hatebreed/as-diehard-as-they-come-chords.htm
Привет, Гость.
Предлагаем пройти революционный курс по гитаре.
Подарок от PrimaNota.Ru, забирай!