PrimaNota.ru - самый крупный в мире бесплатный архив песенных текстов, аккордов, табулатур и нот


Hate Missing April - Broken At A Payphone - таба, видео

Регистрация Запомнить меня
Войти через:  Facebook Google Twitter Vk Yandex Mail.ru

Hate Missing April - Broken At A Payphone - таба, видео

Печатать
Просмотров: 57
Broken At A PayPhone-Hate Missing April
wrote by Christy Ruschmeyer Kevin Krotzer Courtney Card and Laura Smith



Intro after bass plays 4 times guitar 1 plays this 4 times
e ------------------------------------
b ------------------------------------
g ----7--7--6--6--9--9--4--4--2--2----
d --0-0-0-0-0-0-0-0-0-0-0-0-0-0-0-0---
a ------------------------------------
E ------------------------------------

Guitar 2 plays this over guitar 1 in intro
e--0--0--0--0--0--0--0--0--0--0--0--0--
b--0--0--0--0--0--0--0--0--0--0--0--0--
g--7--7--6--6--7--7--9--9--4--4--2--2--
d--0--0--0--0--0--0--0--0--0--0--0--0--
a--0--0--0--0--0--0--0--0--0--0--0--0--
E--7--7--7--7--7--7--9--9--3--3--2--2--


Verse Palm mute repeat as nessarry
e--0--0--0--0--0--0--0--0--0--0--0--0--
b--0--0--0--0--0--0--0--0--0--0--0--0--
g--7--7--6--6--7--7--9--9--4--4--2--2--
d--0--0--0--0--0--0--0--0--0--0--0--0--
a--0--0--0--0--0--0--0--0--0--0--0--0--
E--7--7--7--7--7--7--9--9--3--3--2--2--


Guitar 1 play through twice then back to verse
e----------------------------------
b----------------------------------
g--6-7-7-7-6-7-7-7-9-9-9-9-4-4-2-2-
d----------------------------------
a----------------------------------
E----------------------------------

Ending Gutiar 1 play 4 times
  Dm5         A     G
e--2--2----|--0--|--3-----------
b---3---3--|--2--|--0-----------
g----4---4-|--2--|--0-----------
d----------|--2--|--0-----------
a----------|--0--|--2-----------
E----------|--0--|--3-----------


Guitar 2 plays this under guitar 1
    A        G
e--------|--------
b--------|--------
g--------|--------
d--7--7--|--5--5--
a--5--5--|--5--5--
E--5--5--|--3--3--
     
Добавлено: 22.11.2013
Другие материалы по этой песне:
  • Аккорды и текст

Страница создана 22.11.2013
http://primanota.ru/hate-missing-april/broken-at-a-payphone-chords.htm
Привет, Гость.
Предлагаем пройти революционный курс по гитаре.
Подарок от PrimaNota.Ru, забирай!