PrimaNota.ru - самый крупный в мире бесплатный архив песенных текстов, аккордов, табулатур и нот


Hate Eternal - Thus Salvation - текст песни, таба, видео

Регистрация Запомнить меня
Войти через:  Facebook Google Twitter Vk Yandex Mail.ru

Hate Eternal - Thus Salvation - текст песни, таба, видео

Печатать
Просмотров: 115
band hate eternal
album fury and flames
song thus salvation
tuning from low to high c#,f#,b,e,g#,c#
tabber ben chaffins
putting in standard so its easier to read

fury and flames is the hardest fucking hate eternal record to figure out every song any 
one who disagrees is out of their mind

e------------------------------------------------------------------------|
b------------------------------------------------------------------------|
g------------------------------------------------------------------------|
d-------------------------------------------------6-5-6-5-3--------------|
a-2-2-7777-2-2-7777-2-2-777766665555-2-2-7777-2-2-----------2-2-7777-2-2-|
e-0-0------0-0------0-0--------------0-0------0-0-4-3-4-3-1-0-0------0-0-|
  . .      . .      . .              . .      . .           . .      . .

e---------------------------------------------------------------------|
b---------------------------------------------------------------------|
g---------------------------------------------------------------------|
d---------------------------------------------------------------------|
a-7777-2-2-7777666655554444-333-555-333-444-333-2-2-7777-2-2-7777-2-2-|
e------0-0------------------111-333-111-222-111-0-0------0-0------0-0-|
       . .                                      . .      . .      . .
e----------------------------------------------------------------|
b----------------------------------------------------------------|
g----------------------------------------------------------------|
d------------------------------------6-5-6-5-3-------------------|
a-777766665555-2-2-7777-2-2-7777-2-2-----------2-2-7777-2-2-7777-|
e--------------0-0------0-0------0-0-4-3-4-3-1-0-0------0-0------|
               . .      . .      . .           . .      . .
these are 11's and 10's at the bottom here
e-----------------------------------------------------------------|
b-----------------------------------------------------------------|
g-----------------------------------------------------------------|
d-888777888777111111101010----------------------------------------|
a--------------------------2-2-7777-2-2-7777-2-2-7777666655554444-|
e-666555666555-9-9-9-8-8-8-0-0------0-0------0-0------------------|
                           . .      . .      . .

e---------------------------------------------------------------------|
b---------------------------------------------------------------------|
g---------------------------------------------------------------------|
d-----------------9-----------------------9--8------------------------|
a-555-444-555-777-----444-555-444-555-777-------2-2-7777-2-2-7777-2-2-|
e-333-222-333-555-7---222-333-222-333-555-7--6--0-0------0-0------0-0-|
                                                . .      . .      . .
e----------------------------------------------------------------------|
b----------------------------------------------------------------------|
g----------------------------------------------------------------------|
d------------------------------------7-6-7-6-9-8-----------------------|
a-777766665555-2-2-7777-2-2-7777-2-2-------------2-2-7777-2-2-7777-2-2-|
e--------------0-0------0-0------0-0-5-4-5-4-7-6-0-0------0-0------0-0-|
               . .      . .      . .             . .      . .      . .
e---------------------------------------------------------------------------|
b---------------------------------------------------------------------------|
g---------------------------------------------------------------------------|
d-------------------9--8--7--6--5--6--4-------------------------------------|
a-7777666655554444-----------------------2-2-7777-2-2-7777-2-2-777766665555-|
e-------------------7--6--5--4--3--4--2--0-0------0-0------0-0--------------|
                                         . .      . .      . .
e----------------------------------------------------------------------|
b----------------------------------------------------------------------|
g----------------------------------------------------------------------|
d-----------------------888777888777111111101010-----------------------|
a-2-2-7777-2-2-7777-2-2--------------------------2-2-7777-2-2-7777-2-2-|
e-0-0------0-0------0-0-666555666555-9-9-9-8-8-8-0-0------0-0------0-0-|
  . .      . .      . .                          . .      . .      . .

e-------------------------------------------------------------------------|
b-------------------------------------------------------------------------|
g-------------------------------------------------------------------------|
d-------------------------------------------------------------------------|
a-7777666655554444-333335555544444-2-2-7777-2-2-7777-2-2-777766665555-2-2-|
e------------------111113333322222-0-0------0-0------0-0--------------0-0-|
                                   . .      . .      . .              . .
e------------------------------------------------------------------|
b------------------------------------------------------------------|
g------------------------------------------------------------------|
d-888777888777111111111010101011111111101010-----------------------|
a--------------------------------------------2-2-7777-2-2-7777-2-2-|
e-666555666555-9-9-9-9-8-8-8-8-9-9-9-9-8-8-8-0-0------0-0------0-0-|
                                             . .      . .      . .
e------------------|
b------------------|
g------------------|
d------------------|
a-7777666655554444-
e------------------ a solo starts after this then that is it
please enjoy this song it wasnt easy
Добавлено: 30.05.2012
Другие материалы по этой песне:
  • Аккорды и текст

Страница создана 30.05.2012
http://primanota.ru/hate-eternal/thus-salvation-chords.htm
Привет, Гость.
Предлагаем пройти революционный курс по гитаре.
Подарок от PrimaNota.Ru, забирай!