PrimaNota.ru - самый крупный в мире бесплатный архив песенных текстов, аккордов, табулатур и нот


Hate Eternal - The Fire Of Resurrection - таба, видео

Регистрация Запомнить меня
Войти через:  Facebook Google Twitter Vk Yandex Mail.ru

Hate Eternal - The Fire Of Resurrection - таба, видео

Печатать
Просмотров: 89
band;hate eternal
album;pheniox amongst the ashes
song; the fire of resurrection
tuning from low to high c#,f#,b,e,g#,c#
tabber; ben chaffins
putting in standard so its easier to read

main intro
e-------------------------------------------------------------------------|
b-------------------------------------------------------------------------|
g-------------------------------------------------------------------------|
d-2--------2------2-2-1-1-----2--------------------2----5/7-7-5-5-3-3-1-2-|
a-2------2-2--------------3-3-2------2--2-2--2-2-2-2----------------------|
e-0------0-0------------------0------0--0-0--0-0-0-0----------------------|
         .                           .  . .  . . .

main intro continued
e-------|
b-------|
g-------|
d-2/5-4-|
a-------|
e-------|

riff 1 play 4 itmes
e------------------------------------------------------------------|
b------------------------------------------------------------------|
g------------------------------------------------------------------|
d-------2--2--222-------4--4--444-------5--5--555-------4-5-4-222--|
a---0---------------0---------------0---------------0--------------|
e-0-0-0-----------0-0-0-----------0-0-0-----------0-0-0------------|
  . . .           . . .           . . .           . . .

riff 2 play 4 times
e------------------------------------------------------------------|
b------------------------------------------------------------------|
g------------------------------------------------------------------|
d-------7--7--777-------5--5--555-------4--4--444--------4-5-4-222-|
a---0---------------0---------------0----------------0-------------|
e-0-0-0-----------0-0-0-----------0-0-0------------0-0-0-----------|
  . . .           . . .           . . .            . . .
now a solo will start but rhythm plays riff 1 again and after the solo ends
both guitars will play riff 1 again 4 times then another solo will start then both 
guitars play the intro to end the song
Добавлено: 16.03.2012
Другие материалы по этой песне:
  • Аккорды и текст

Страница создана 16.03.2012
http://primanota.ru/hate-eternal/the-fire-of-resurrection-chords.htm
Привет, Гость.
Предлагаем пройти революционный курс по гитаре.
Подарок от PrimaNota.Ru, забирай!