PrimaNota.ru - самый крупный в мире бесплатный архив песенных текстов, аккордов, табулатур и нот


Hate Eternal - Saturated In Dejection - текст песни, таба, видео

Регистрация Запомнить меня
Войти через:  Facebook Google Twitter Vk Yandex Mail.ru

Hate Eternal - Saturated In Dejection - текст песни, таба, видео

Печатать
Просмотров: 103
band;hate eternal
album; conquering the throne
song; saturated in dejection
tabber;ben chaffins
tuning; from low to high c#,f#,b,e,g#,c#
putting in standard so its easier to read

main intro under 32 seconds

e--------------------------------------|
b--------------------------------------|
g--------------------------------------|
d-6--5--10--9--8--6/7/6--5--7--3--6--5-|
a--------------------------------------|
e-4--3---8--7--6--4/5/4--3--5--1--4--3-|

play this here 2 times

e---------------------------------------------------------------------------|
b---------------------------------------------------------------------------|
g---------------------------------------------------------------------------|
d-----3-----3-----3-----3-----3-----3-----5-4-----2-----2-----2-----2-----2-|
a---------------------------------------------------------------------------|
e-111---111---111---111---111---111---111-3-2-000---000---000---000---000---|
  ...   ...   ...   ...   ...   ...   ...     ...   ...   ...   ...   ...
e---------------|
b---------------|
g---------------|
d-----2-----4-3-|
a---------------| this is continued from above
e-000---000-2-1-|
  ...   ...

e-----------------------------------------------------------------------|
b-----------------------------------------------------------------------|
g-----------------------------------------------------------------------|
d----------------------------------------------5-4----------------------|
a--------555544441111-------------------------------------555544441111--|
e-222222--------------222222111111555555444444-3-2-222222---------------|
  ......                                           ......

e---------------------------------------------------------------------------|
b---------------------------------------------------------------------------|
g---------------------------------------------------------------------------|
d------------------------------7777----------77778888----------777788889999-|
a---------------------------------------------------------------------------|
e-2222111155554444222277776666------77776666----------77776666--------------|

e----------------------------------------------------------------------|
b----------------------------------------------------------------------|
g----------------------------------------------------------------------|
d-6-5-8-7--------777777777777--------777777778888888899999999----------|
a-------------------------------------------------------------88888888-|
e-4-3-6-5-000000--------------000000-----------------------------------|
          ......              ......
e----------------------------------------------------------|
b----------------------------------------------------------|
g----------------------------------------------------------|
d----------7-8------6666------66667777------666677778888-0-|
a--------------------------------------------------------0-|  end of song
e-33332222-5-6-0000------0000----------0000--------------0-|
               ....      ....          ....              .
Добавлено: 23.02.2012
Другие материалы по этой песне:
  • Аккорды и текст

Страница создана 23.02.2012
http://primanota.ru/hate-eternal/saturated-in-dejection-chords.htm
Привет, Гость.
Предлагаем пройти революционный курс по гитаре.
Подарок от PrimaNota.Ru, забирай!