PrimaNota.ru - самый крупный в мире бесплатный архив песенных текстов, аккордов, табулатур и нот


Hate Eternal - It Is Our Will - текст песни, таба, видео

Регистрация Запомнить меня
Войти через:  Facebook Google Twitter Vk Yandex Mail.ru

Hate Eternal - It Is Our Will - текст песни, таба, видео

Печатать
Просмотров: 129
band;hate eternal
song; it is our will
album; i,monarch
tuning from low to high c#,f#,b,e,g#,c#
tabber; ben chaffins
putting in standard so its easier to read and this was the best that i could come 
up with this song just listen to it for the timing and all that good stuff

e------------------------------------------------------------------------|
b------------------------------------------------------------------------|
g----------------55------------------------------------------------------|
d-4-5---------77----66---------------------------------------------------|
a-2-3-5----77----------778877----------77------6677----333333----4477----|
e-----3-55--------------------99889988----4444------44--------44------44-|

e----------------------------------------------------------------------------|
b----------------------------------------------------------------------------|
g-------------------------55-------------------------------------------------|
d----------------------77----66----------------------------------------------|
a-333333----33------77----------778877----------7777777766----66----44443333-|
e--------44----4455--------------------99889988------------88----88----------|

e---------------------------------------------------------------------------|
b---------------------------------------------------------------------------|
g--------------------55-----------------------------------------------------|
d-4---5-----------77----66--------------------------------------------------|
a-2---3---5----77----------778877----------77--------6677----333333----4477-|
e---------3-55--------------------99889988----444444------44--------44------|

e---------------------------------------------------------------------------|
b---------------------------------------------------------------------------|
g------------------------------55-------------------------------------------|
d---------------------------77----66----------------------------------------|
a----333333----3344------77----------778877----------777777----6666----4444-|
e-44--------44------4455--------------------99889988--------88------88------|

e---------------------------------------------------------------------|
b---------------------------------------------------------------------|
g---------------------------------------------------------------------|
d----------------4---5---------------66------------66-----------------|
a----333333------2---3---5-777788----------7788----------66------6677-|
e-88--------5555---------3--------00----44------44----44----4444------|

e---------------------------------------------------------------------------|
b---------------------------------------------------------------------------|
g---------------------------------------------------------------------------|
d------------------------66------------66------------55---------------------|
a----------------7788----------7788----------6677----------6677-------------|
e-3-2-4-5-4-3-44------00----44------44----44------44----44------3-2-4-5-4-3-|

e--------------------------------------------------------------------------|
b--------------------------------------------------------------------------|
g--------------------------------------------------------------------------|
d------------66------------55--------------------------------66------------|
a----7788----------6677----------6677----------------7788----------7788----|
e-44------44----44------44----44------3-2-4-5-4-3-44------00----44------44-|

e-------------------------------------------------------------------------|
b-------------------------------------------------------------------------|
g------------------------------------------------------------55-----------|
d-66------------55------------------------4---5-----------77----66--------|
a-------6677----------6677----------------2---3---5----77----------778877-|
e----44------44----44------3-2-4-5-4-3-44---------3-55--------------------|

e-----------------------------------------------------------------------|
b-----------------------------------------------------------------------|
g-----------------------------------------------------------------55----|
d--------------------------------------------------------------77----66-|
a-------------6677----333333----4477----333333----3344------77----------|
e-99889988-44------44--------44------44--------44------4455-------------|

e----------------------------------------------------------------------------|
b----------------------------------------------------------------------------|
g---------------------------------------------------------------55-----------|
d--------------------------------------------4---5-----------77----66--------|
a-778877--------7777777766----66----44443333-2---3---5----77----------778877-|
e--------998899------------88----88------------------3-55--------------------|

e---------------------------------------------------------------------------|
b---------------------------------------------------------------------------|
g------------------------------------------------------------------------55-|
d---------------------------------------------------------------------77----|
a----------77--------6677----33333344----77----333333----3344------77-------|
e-99889988----444444------44----------44----44--------44------4455----------|

e------------------------------|
b------------------------------|
g------------------------------|
d-66-----------------4---5-----|
a----778877----------2---3---5-|
e-----------99889988---------3-|

there you go thats all i got enjoy it for what it is this is not all of the song but the 
biggest part of it
Добавлено: 11.07.2012
Другие материалы по этой песне:
  • Аккорды и текст

Страница создана 11.07.2012
http://primanota.ru/hate-eternal/it-is-our-will-chords.htm
Привет, Гость.
Предлагаем пройти революционный курс по гитаре.
Подарок от PrimaNota.Ru, забирай!