PrimaNota.ru - самый крупный в мире бесплатный архив песенных текстов, аккордов, табулатур и нот


Hate Eternal - Bringer Of Storms - текст песни, таба, видео

Регистрация Запомнить меня
Войти через:  Facebook Google Twitter Vk Yandex Mail.ru

Hate Eternal - Bringer Of Storms - текст песни, таба, видео

Печатать
Просмотров: 233
band;hate eternal
album;fury and flames
song;bringer of storms
tabber;ben chaffins
tuning from low to high;c#,f#,b,e,g#,c#
putting in standard so its easier to read
this is the best that i could come up with this song by the GREATEST
DEATH METAL BAND EVER!!!! ERIC RUTAN IS THE SHIT

main intro play this 2 times
e----------------------------------------------------------------------------|
b----------------------------------------------------------------------------|
g------111111-222222------111111-222222--------------------------------------|
d------222222-333333------222222-333333--------------------------------------|
a-3--3-333333-444444-3--3-333333-444444-3--3------------------3--3-----------|
e-1--1---------------1--1---------------1--1-444444-333333-1b-1--1--4"-3"-1--|b
  .  .               .  .               .  .
e------      -----------------------|
b------      -----------------------|
g------      -----------------------| this little section by itself
d------      -----------------------| is played 4 times
a-3--3-      -------222222--------4-|
e-1--1-      000000--------000000-2-|
  .  .       ......        ......
this part here below is both guitars combined
e------------------------------------------------------------|
b------------------------------------------------------------|
g-----------14141414------------------------1414141415151515-|
d------------------------------------------------------------|
a-----------12121212--------222222--------4-1212121213131313-| sorry thats
e-0000-0000----------000000--------000000-2------------------| all i got
Добавлено: 12.05.2012
Другие материалы по этой песне:
  • Аккорды и текст

Страница создана 12.05.2012
http://primanota.ru/hate-eternal/bringer-of-storms-chords.htm
Привет, Гость.
Предлагаем пройти революционный курс по гитаре.
Подарок от PrimaNota.Ru, забирай!