PrimaNota.ru - самый крупный в мире бесплатный архив песенных текстов, аккордов, табулатур и нот


Hate Core - Song One - таба, бас-таба, видео

Регистрация Запомнить меня
Войти через:  Facebook Google Twitter Vk Yandex Mail.ru

Hate Core - Song One - таба, бас-таба, видео

Печатать
Просмотров: 74
-------------------------------------------------------------------------------
                             SONG ONE - Hate Core
-------------------------------------------------------------------------------
Tabbed by:Ratboy
E-mail:caradecerebro_1@hotmail.com

Tuning:standard
                                   INTRO
e|2-2-2-2--------------------------------------------------------------------|
B|2-2-2-2-2-2-2-2-3-3-3-3-2-2-2-2--------------------------------------------|
G|0-0-0-0-2-2-2-2-3-3-3-3-2-2-2-2--------------------------------------------|
D|--------0-0-0-0-1-1-1-1-0-0-0-0--------------------------------------------|(X2)
A|---------------------------------------------------------------------------|
E|---------------------------------------------------------------------------|
                              VERSE
e|---------------------------------------------------------------------------|
B|---------------------------------------------------------------------------|
G|-------------------7-7-7-7~-6-6-6-6~---------------------------------------|
D|5-5-5-5-5-5-5-444--x-x-x-x--x-x-x-x----------------------------------------|(x4)
A|5-5-5-5-5-5-5-444--5-5-5-5--4-4-4-4----------------------------------------|
E|3-3-3-3-3-3-3-222----------------------------------------------------------|
                            CHORUS part 1
e|---------------------------------------------------------------------------|
B|---------------------------------------------------------------------------|
G|---------------------------------------------------------------------------|
D|5-5-5-5--4-4-4-4--9-9-9-9--7-7-7-7-----------------------------------------|(X2)
A|5-5-5-5--4-4-4-4--9-9-9-9--7-7-7-7-----------------------------------------|
E|3-3-3-3--2-2-2-2--7-7-7-7--5-5-5-5-----------------------------------------|
                          CHORUS part 2
e|---------------------------------------------------------------------------|
B|---------------------------------------------------------------------------|
G|---------------------------------------------------------------------------|
D|5-5-5-5-5-5-3-3-3-3-3-3-5-5-5-5-5-5-3-3-3-3-3-3-3-3-3----------------------|
A|5-5-5-5-5-5-3-3-3-3-3-3-5-5-5-5-5-5-3-3-3-3-3-3-3-3-3----------------------|
E|3-3-3-3-3-3-2-2-2-2-2-2-7-7-7-7-7-7-5-5-5-5-5-5-5-5-5----------------------|
INTRO (X2)
                             VERSE
e|---------------------------------------------------------------------------|
B|---------------------------------------------------------------------------|
G|---------------7-7-7-7~-6-6-6-6~-------------------------------------------|
D|2-2-2-2-2-2-2--x-x-x-x--x-x-x-x--------------------------------------------|(x2)
A|2-2-2-2-2-2-2--5-5-5-5--4-4-4-4--------------------------------------------|
E|0-0-0-0-0-0-0--------------------------------------------------------------|
    xxxxxxxxxxx
CHORUS 1 + CHORUS 2
     POST CHORUS                                  BRIDGE
e|--------------------------------------------------------------------------|
B|--------------------------------------------------------------------------|
G|-------------------------------------9-9----9----9-9----9-----------------|
D|--------------------------------------9----9-9----9----9-9----------------|
A|-7---5---3~--7---9---3~-----------7-7----77----77----77-------------------|
E|5-5-3-3-1---5-5-7-7-1-----------------------------------------------------|
          BRIDGE 2                      FINAL VERSE
e|---------------------------|      e|------------------------------------------------|
B|---------------------------|      B|------------------------------------------------|
G|---------------------------|      G|------------------------------------------------|
D|7-7-7-5-5-5-9-9-9-5-5-5----|(x4)  D|7-7-7-7-9-9-11-11-------------------------------|(X4)
A|7-7-7-5-5-5-9-9-9-5-5-5----|      A|7-7-7-7-9-9-11-11-------------------------------|
E|5-5-5-3-3-3-7-7-7-3-3-3----|      E|5-5-5-5-7-7-9--9--------------------------------|
                             FINAL
e|---------------------------------------------------------------------------|
B|---------------------------------------------------------------------------|
G|---------------------------------------------------------------------------|
D|7-7-9-9-7-7-9-9-7-7-9-9-------2~-------------------------------------------|
A|7-7-9-9-7-7-9-9-7-7-9-9--12\2-2~-------------------------------------------|
E|5-5-7-7-5-5-7-7-5-5-7-7--12\2-0~-------------------------------------------|


************************************

| /   slide up
| \   slide down
| h   hammer-on
| p   pull-off
| ~   vibrato
| +   harmonic
| x   Mute note
| b   Bend
| pb  Pre-bend
| br  Bend release
| pbr Pre-bend release
| brb Bend release bend

************************************
Добавлено: 23.05.2016
Другие материалы по этой песне:
  • Аккорды и текст

Страница создана 23.05.2016
http://primanota.ru/hate-core/song-one-chords.htm
Привет, Гость.
Предлагаем пройти революционный курс по гитаре.
Подарок от PrimaNota.Ru, забирай!