PrimaNota.ru - самый крупный в мире бесплатный архив песенных текстов, аккордов, табулатур и нот


hat films - Pleasure Elf - таба, видео

Регистрация Запомнить меня
Войти через:  Facebook Google Twitter Vk Yandex Mail.ru

hat films - Pleasure Elf - таба, видео

Печатать
Просмотров: 79
Уроки эстрадного вокала в Санкт-Петербурге
-------------------------------------------------------------------------------
                             pleasure elf - hat films
-------------------------------------------------------------------------------
Tabbed by:fcurtis20
E-mail:fcurtis20@gmail.com

Tuning:eadgbe

version 1
e|--15-15-17-14----15-15-17-14----15-15-15-14-------15-15-15-14--------------|
B|--------------------------------------------15----------------15-----------|
G|---------------------------------------------------------------------------|
D|---------------------------------------------------------------------------|
A|---------------------------------------------------------------------------|
E|---------------------------------------------------------------------------|

version 2
e|---------------------------------------------------------------------------|
B|---------------------------------------------------------------------------|
G|--12-12-12-14-11----12-12-12-14-11----12-12-12-11-------12-12-12-11--------|
D|--------------------------------------------------12----------------12-----|
A|---------------------------------------------------------------------------|
E|---------------------------------------------------------------------------|

then just repeat this, through the whole song
this was previously rejected, i dont know why


************************************

| /   slide up
| \   slide down
| h   hammer-on
| p   pull-off
| ~   vibrato
| +   harmonic
| x   Mute note
| b   Bend
| pb  Pre-bend
| br  Bend release
| pbr Pre-bend release
| brb Bend release bend

************************************
Добавлено: 20.06.2016
Вам также может быть интересно:
Другие материалы по этой песне:
  • Аккорды и текст

Страница создана 20.06.2016
http://primanota.ru/hat-films/pleasure-elf-chords.htm
Привет, Гость.
Предлагаем пройти революционный курс по гитаре.
Подарок от PrimaNota.Ru, забирай!