PrimaNota.ru - самый крупный в мире бесплатный архив песенных текстов, аккордов, табулатур и нот


hat films - Epic Montage - таба, видео

Регистрация Запомнить меня
Войти через:  Facebook Google Twitter Vk Yandex Mail.ru

hat films - Epic Montage - таба, видео

Печатать
Просмотров: 55
EPIC MONTAGE
Hat Films
Hatventures Filfy' Tunes, Vol. 1 (2011)


Tuning: Standard (EADGBe)


This is the guitar part that comes near the end. This can be played with slides or hammer-ons or pull-offs,
however you like. I tabbed the slides and pull-offs as I play them.

e|-----------------------15~--13\12-12~----------------------------------------|
B|--14~--/15~--/17~--\15------------------15\13~--/15------------15------------|
G|----------------------------------------------------14~--/16~----------------|
D|-----------------------------------------------------------------------------|
A|-----------------------------------------------------------------------------|
E|-----------------------------------------------------------------------------|

e|--------17~-(17)-(17)-(17)--19p17-17~--17p15(x)13~--15-13-12----12-13-12-----|  These bracketed notes are
B|-\14~--------------------------------------------------------15----------15~-|  optional
G|-----------------------------------------------------------------------------|
D|-----------------------------------------------------------------------------|
A|-----------------------------------------------------------------------------|
E|-----------------------------------------------------------------------------|

e|-----------------|     |--12--------------------|
B|--17---15---14~--|     |-------15---14~---------|
G|-----------------|  OR |------------------------| THEN
D|-----------------|     |------------------------|
A|-----------------|     |------------------------|
E|-----------------|     |------------------------|

e|-----------------------15~--13\12-12~----------------------------------------|The bracketed note here is what
B|(14~)--/15~--/17~--\15------------------15\13~--/15------------15--\14~~~----|still rings from the above
G|----------------------------------------------------14~--/16~----------------|section
D|-----------------------------------------------------------------------------|
A|-----------------------------------------------------------------------------|
E|-----------------------------------------------------------------------------|

~ - Vibrato
/ - Slide up
\ - Slide down
p - Pull-off
Добавлено: 20.06.2016
Вам также может быть интересно:
Другие материалы по этой песне:
  • Аккорды и текст

Страница создана 20.06.2016
http://primanota.ru/hat-films/epic-montage-chords.htm
Привет, Гость.
Предлагаем пройти революционный курс по гитаре.
Подарок от PrimaNota.Ru, забирай!