PrimaNota.ru - самый крупный в мире бесплатный архив песенных текстов, аккордов, табулатур и нот


Haste The Day - Epitaph - таба, видео

Регистрация Запомнить меня
Войти через:  Facebook Google Twitter Vk Yandex Mail.ru

Haste The Day - Epitaph - таба, видео

Печатать
Просмотров: 156
Уроки эстрадного вокала в Санкт-Петербурге
This is Haste the Day's Epitaph, although it is not 100%, it's good enough to play 
and recognize the song, I think. 
I play it in D A D G B E, but it sounds good too with standard tuning.
Tabbed by me (Diogo Martinó), btw, first time I make a tab... ever.
Listen to the song to catch the strumming.

Enjoy ;)


E|----2----3----2----3----3----2----3----2---------------||
B|----0----0----0----0----0----0----0----0---------------||
G|----0----0----0----0----2----2----2----2---------------||  x4 (until 0:55)
D|----2----2----2----2----0----0----0----0---------------||
A|----2----2----2----2----0----0----0----0---------------||
D|----0----0----0----0---(2)--(2)--(2)--(2)--------------||

E|----0----0----0----0----0------------------------------||
B|----1----3----1----1----0------------------------------||
G|----0----0----0----0----0------------------------------||  x4 (until 1:50)
D|----2----4----2----2----2------------------------------||
A|----3----5----3----2----2------------------------------||
D|----0----0----0----0----0------------------------------||

E|----2----3----2----3----3----2----3----2---------------||
B|----0----0----0----0----0----0----0----0---------------||
G|----0----0----0----0----2----2----2----2---------------||  x4 (until 2:32)
D|----2----2----2----2----0----0----0----0---------------||
A|----2----2----2----2----0----0----0----0---------------||
D|----0----0----0----0---(2)--(2)--(2)--(2)--------------||

E|----X----X----X----------------------------------------||
B|----0----0----0----------------------------------------||
G|----0----0----0----------------------------------------||  x4 (until 3:11)
D|----9----7----5----------------------------------------||
A|----7----5----3----------------------------------------||
D|----X----X----X----------------------------------------||

E|----0----0----0----0----------------------0----0----0--||
B|----0----0----0----0----------------------0----0----0--||
G|----0----0----0----0---x4 + end with------0----0----0--||  (until 3:38)
D|----5----7----5----7----------------------5----4----4--||
A|----3----5----3----5----------------------3----3----2--||
D|----X----X----X----X----------------------X----X----X--||

E|----0----0----0----------------------------------------||
B|----0----0----0----------------------------------------||
G|----0----0----0----------------------------------------||  x4 (til the end)
D|----9----7----5----------------------------------------||
A|----7----5----3----------------------------------------||
D|----X----X----X----------------------------------------||
Добавлено: 14.03.2012
Другие материалы по этой песне:
  • Аккорды и текст

Страница создана 14.03.2012
http://primanota.ru/haste-the-day/epitaph-chords.htm
Привет, Гость.
Предлагаем пройти революционный курс по гитаре.
Подарок от PrimaNota.Ru, забирай!