PrimaNota.ru - самый крупный в мире бесплатный архив песенных текстов, аккордов, табулатур и нот


Hass - Ihr Helden - таба, видео

Регистрация Запомнить меня
Войти через:  Facebook Google Twitter Vk Yandex Mail.ru

Hass - Ihr Helden - таба, видео

Печатать
Просмотров: 107
Уроки эстрадного вокала в Санкт-Петербурге
Авторы музыки: Peter Blümer
Авторы текста: Peter Blümer
                        HASS – Ihr Helden

Intro
E------------------|
H------------------|
G-54--54--54-------|            (3x)
D-547-547-547-7-7~-|
A-327-327-327-7-7~-|
E---5---5---5-5-5~-|

Dann:

E----------------------------------|
H----------------------------------|
G-54--54--54------54------54-------|
D-547-547-547777775477777754777777-|
A-327-327-327777773277777732777777-|
E---5---5---555555--555555--555555-|

Verse1
E-----------------------------------|
H-----------------------------------|
G-54------54------54-------54-------|
D-547777775477777754777777-54777777-|
A-327777773277777732777777-32777777-|
E---555555--555555--555555---555555-|

E------------------|
H------------------|
D-1111111113131313-|
G-1111111113131313-|            (2x)
A--9-9-9-911111111-|
E------------------|

E------------|
H------------|
D-1111111113-|
G-1111111113-|
A--9-9-9-911-|
E------------|

Verse2
E----------------------------------------------------------|
H----------------------------------------------------------|
G-54--54---54-----54------54------54------54------54-------|
D-547-547-547777775477777754777777547777775477777754777777-|
A-327-327-327777773277777732777777327777773277777732777777-|
E---5---5---555555--555555--555555--555555--555555--555555-|

E------------------|
H------------------|
D-1111111113131313-|
G-1111111113131313-|            (2x)
A--9-9-9-911111111-|
E------------------|

E------------|
H------------|
D-1111111113-|
G-1111111113-|
A--9-9-9-911-|
E------------|

Verse3 (gleich wie Verse2)

Bridge
E--------------------------------------------------------|
H--------------------------------------------------------|
G-54--54--54------54------109------------109-------------|
D-547-547-5477777754777777109121212121212109121212121212-|
A-327-327-3277777732777777-87121212121212-87121212121212-|
E---5---5---555555--555555---101010101010---101010101010-|

E------------------------------------------------|
H------------------------------------------------|
G-54------54------109------------109-------------|
D-5477777754777777109121212121212109121212121212-|
A-3277777732777777-87121212121212-87121212121212-|
E---555555--555555---101010101010---101010101010-|

E------------------|
H------------------|
G------------------|
D-1414141414141414-|
A-1414141414141414-|
E-1212121212121212-|

Verse 4(wie Verse 3 und 2)

Verse5
E-------------------------------------------------------------------|
H-------------------------------------------------------------------|
G-54--54--54------54------54------54------54------54-------54-------|
D-547-547-547777775477777754777777547777775477777754777777-54777777-|
A-327-327-327777773277777732777777327777773277777732777777-32777777-|
E---5---5---555555--555555--555555--555555--555555--555555---555555-|

E------------------|
H------------------|
D-1111111113131313-|
G-1111111113131313-|            (2x)
A--9-9-9-911111111-|
E------------------|

E------------|
H------------|
D-1111111113-|
G-1111111113-|
A--9-9-9-911-|
E------------|

Outro
E----------------------|
H----------------------|
G-54--54--54-----------|
D-547-547-547-7-7~~~~~-|
A-327-327-327-7-7~~~~~-|
E---5---5---5-5-5~~~~~-|
Добавлено: 30.06.2012
Другие материалы по этой песне:
  • Аккорды и текст

Страница создана 30.06.2012
http://primanota.ru/hass/ihr-helden-chords.htm
Привет, Гость.
Предлагаем пройти революционный курс по гитаре.
Подарок от PrimaNota.Ru, забирай!