PrimaNota.ru - самый крупный в мире бесплатный архив песенных текстов, аккордов, табулатур и нот


Harvey P J - One Line - аккорды и текст, видео

Регистрация Запомнить меня
Войти через:  Facebook Google Twitter Vk Yandex Mail.ru

Harvey P J - One Line - аккорды и текст, видео

Печатать
Просмотров: 89
One Line
Harvey P J
song: one line
artist: pj harvey
album: stories from the city, stories from the sea
tabbed by: jac in oz.
notes: i'm new to guitar so please add as necessary. haven't bothered with 
ordering the sections - you can work that out by listening. enjoy!


One Line

Two sections:

    G    Em  A   Em
------------------------
------------------------
------------------------
------------------------
---2----2----0----2---
---3----0----0----0---

End:

-----------------------
-----------------------
-----------------------
----5-----2-----4----
----5-----2-----2----
----3-----0-----2----

_____________________________________________________
     
Добавлено: 24.06.2013
Другие материалы по этой песне:
  • Аккорды и текст

Страница создана 24.06.2013
http://primanota.ru/harvey-p-j/one-line-chords.htm
Привет, Гость.
Предлагаем пройти революционный курс по гитаре.
Подарок от PrimaNota.Ru, забирай!