PrimaNota.ru - самый крупный в мире бесплатный архив песенных текстов, аккордов, табулатур и нот


Harvey P J - Missed - аккорды и текст, видео

Регистрация Запомнить меня
Войти через:  Facebook Google Twitter Vk Yandex Mail.ru

Harvey P J - Missed - аккорды и текст, видео

Печатать
Просмотров: 92
Уроки эстрадного вокала в Санкт-Петербурге
Missed
Harvey P J
MISSED
BY PJ HARVEY
FROM THE ALBUM RID OF ME
1993
-------------------------
Tabbed by AAuuddee@aol.com


NOTE: In this song,the rythm can be hard to follow
sometimes so you just got to feel it actually...
it is the same for the guitar playing that is full
of palm mutings.


INTRO:
  C5            D5            F5
---------------------------------
---------------------------------
-------0---0---------0-----0-----repeat
-------5---5---------5-----5--3--
--3--3---3---3--5--5---3h5----3--
------------------------------1--


VERSE1: PM (Palm Muting)
  C5  F5         C5  A5  F5  A5
--------------------------------
--------------------------------
--5--------------5--------------
--5---3--repeat--5---7---3---7--
--3---3----------3---7---3---7--
------1--------------5---1---5--


VERSE2: same as verse1


PLAY THE INTRO FILL THEN


VERSE3: same as verse1 without PM


CHORUS:
  C5  D5  F5
-------------
-------------
--5---7------repeat
--5---7---3--
--3---5---3--
----------1--


THEN PLAY THIS:
  C5  F5
---------
---------
--5------repeat
--5---3--
--3---3--
------1--


VERSE4: PM
  C5  F5         C5  A5  F5  A5  F5  A5
----------------------------------------
----------------------------------------
--5--------------5----------------------
--5---3--repeat--5---7---3---7---3---7--
--3---3----------3---7---3---7---3---7--
------1--------------5---1---5---1---5--


CHORUS until the end...


To see a list of my tabs,go to my website:
www.multimania.com/aauuddee
     
Добавлено: 26.06.2013
Другие материалы по этой песне:
  • Аккорды и текст

Страница создана 26.06.2013
http://primanota.ru/harvey-p-j/missed-chords.htm
Привет, Гость.
Предлагаем пройти революционный курс по гитаре.
Подарок от PrimaNota.Ru, забирай!