PrimaNota.ru - самый крупный в мире бесплатный архив песенных текстов, аккордов, табулатур и нот


Harvey Milk - Ive Got A Love - таба, видео

Регистрация Запомнить меня
Войти через:  Facebook Google Twitter Vk Yandex Mail.ru

Harvey Milk - Ive Got A Love - таба, видео

Печатать
Просмотров: 33
Harvey Milk is an atmospheric sludge metal band influenced by the Melvins and blues rock. 
They released several albums and one of them was even awarded Album of the Year by an online mag.
Their bandcamp http://harveymilk.bandcamp.com/
Their facebook https://www.facebook.com/HarveyMilk
Review of their album http://pitchfork.com/reviews/albums/12005-lifethe-best-game-in-town/

Simply but beautiful song by the masters of bizarro sludge. Play this SLOW and with feeling. 
Song can be found on YouTube and is from their album 'Special Wishes'


Gtr I (Bb F Bb Eb G C) - 'I've got a Love'

 Verse- Palm mute all
|------------------|
|------------------|
|------------------|
|------------------|
|-0---0--0--0-0----|
|-0---0--0--0-0----|

or |dun.........dun.........dun...du-dunn.|dun...etc

Fill 1
|-------------------------|
|-------------------------|
|-------------------------|
|----------3--------------|
|-----5--------5----------|
|-0---------------3--0----|


Pretty much the chorus of this song
|------------------------------------------|
|------------------------------------------|
|-------5-----------5----------------------|
|----3-----3-----3-----3-----5---3---------|
|-5-----------3-----------3---------5------|
|-------------------------------------3----|


The solo is fairly simple bluesy stuff and all about creating these heavy droning sounds. 
You should know your guitar and setup well enough to figure out something cool and noisy on your own, 
but the two notes are on the 7th and 12th fret. It's all about bending them hard.


Back to the verse and Fill 1, then this Fill into the Outro

                                1   2 play this the second time, or just the 3rd string again
|-----------------|------------|---|-----|
|-----------------|------------|---|-----|
|-----5-------5---|------------|---|-----|
|---3---3---3---3-|-----5-3----|3--|-----|
|-5-------3-------|-3--------5-|---|-----|
|-----------------|------------|---|3----|


Outro
this is what they do live
|-------------------------|t
|-------------------------|
|-------------------------|
|-----------2--2----------|
|-----3-----------3--5----|
|-0-0---0-0---------------|
  . .   . .  pslm mutes

And on the record
|----------------------|
|----------------------|
|------------0-0-------|
|-----5------2-2--5----|
|-0-0-3--0-0-3-3--5----|
|-0-0----0-0-----------|
  . .    . .

Again it doesnt really matter and I think Creston himself doesnt like playing it always 100% the same. 
Just mess around and have fun.

Добавлено: 06.08.2015
Другие материалы по этой песне:
  • Аккорды и текст

Страница создана 06.08.2015
http://primanota.ru/harvey-milk/ive-got-a-love-chords.htm
Привет, Гость.
Предлагаем пройти революционный курс по гитаре.
Подарок от PrimaNota.Ru, забирай!